» » »

Alt-j - Lovely Day Tabs

Artists:  A B C D E F G H I J K L M N O P Q R S T U V W X Y Z # 

Lovely Day Tabs

(ver. 2) Click to play this song!
Alt-j
 Rating:
4.3/5 (27 votes)

 Lovely Day lessons Tabs too difficult? Try these video lessons and learn fast
 
                [Intro]
e|-----------------------------------------------------------------------------------|
B|-----------------------------------------------------------------------------------|
G|-3----3----3-----3------6-------6-----6-----6--------------------------------------|
D|-- 4----4----4-----4-------8------8-----8------8------7--------7--------7-------7--|
A|-----------------------6------6-----6------6--------------9-------9--------9------9|
E|-2---2----2----2----------------------------------5---------5---------5-------5----|

e|---------------------------------------------------------------------------|
B|---------------------------------------------------------------------------|
G|---------------------------------------------------------------------------|
D|---9---------9---------9--------7------------------------------------------|
A|-----9---------9---------9---------9---------------------------------------|
E|-7--------7---------7--------7---------------------------------------------|

 Intro is played through verse, with an addition of a synt: I tabbed the synt here :
e|----9-----------9-------------9--------9-----------------------------------|
B|-------7-----7----7-------7----------------7-------------------------------|
G|--8-------8----------8------------8----------------------------------------|
D|---------------------------------------------------------------------------|
A|---------------------------------------------------------------------------|
E|---------------------------------------------------------------------------|
     Bridge
e|--------------------------------------------------------------------------------------|
B|------5-------5--------5-----------5-----------5----5-----5-----5------7-----7----7---|
G|--------6-------6--------6------------6---------6-----6-----6-----6------8----8----8--|
D|--7-------7--------7-----------7-----------4------4-----4-----4------9----9-----9-----|
A|--------------------------------------------------------------------------------------|
E|--------------------------------------------------------------------------------------|

Bridge ==> resuming here:
e|---------------------------------------------------------------------------|
B|-----7--------7-------7--------5-------------------------------------------|
G|-------8--------8-------8--------------------------------------------------|
D|--9-------9--------9---------9---------------------------------------------|
A|---------------------------------------------------------------------------|
E|---------------------------------------------------------------------------|
   Chorus is backed with same guitar as intro and verse.            
Submit corrections


        Lovely Day lessons Hard to play? Try these video lessons and learn fast Lovely Day lessons
        
↑ Back to top | Tablatures and chords for acoustic guitar and electric guitar, ukulele, drums are parodies/interpretations of the original songs. You may use it for private study, scholarship, research or language learning purposes only