» » »

Alt-j - Breezeblocks Tabs

Artists:  A B C D E F G H I J K L M N O P Q R S T U V W X Y Z # 

Breezeblocks Tabs

(ver. 2) Click to play this song!
Alt-j
 Rating:
4/5 (4 votes)

 Breezeblocks  lessons Tabs too difficult? Try these video lessons and learn fast
 
                (2)
***This is the way they actually play it***

This is my first tab. I used the audio files they put up on soundcloud, as well as 
some of their live performances, and trust me I took my time.

Be sure to listen to the song to get the timing down.

This is a work in progress, I still have some more to do when I get more time so hang in there!

Hope you guys like it! And please rate!



This is Joe's (the singer) guitar part

Slap the strings where you see an "x"

Both E strings tuned down to D


(let it ring)
D |---------7x-------10-x---12x--12-------------------------------|
B |---------------------------------------------------------------|
F#|---------------------------------------------------------------| x4
D |---------------------------------------------------------------|
A |---------------------------------------------------------------|
D |---------3x--3-3/7-7-x--7-0x-7-0---0000------------------------|

Chorus: **IMPORTANT: he kind of bars this part so he will occasionally strum and hit the
D AND A string on the same fret(so for example 3 on D AND A but the A is very soft).
The times he does hit the A string it seems to be on accident so I won't make a point of 
when it happens in the recording, just do what he does and let it happen when it happens!
D|---------------------------------------------------------------------|
B|---------------------------------------------------------------------|
G|---------------------------------------------------------------------|
D|----------------------------------(x3)-------------------------------|
A|---------------------------------------------------------------------|
D|-33333333777777770000000233333333-------3333333377777777000000223--3-|


D|---------7x-------10-x---12x--12-------------------------------|
B|---------------------------------------------------------------|
G|---------------------------------------------------------------| x3
D|---------------------------------------------------------------|
A|---------------------------------------------------------------|
D|---------3x--3-3/7-7-x--7-0x-7-0---0000------------------------|

D|---------7x------10-x---12x-----------------------------------|
B|--------------------------------------------------------------|
G|--------------------------------------------------------------|
D|--------------------------------------------------------------|
A|--------------------------------------------------------------|
D|---------3x-3-3/7-7-x--7-0x-------0000------------------------|

Chorus:
D|---------------------------------------------------------------------|
B|---------------------------------------------------------------------|
G|---------------------------------------------------------------------|
D|----------------------------------(x3)-------------------------------|
A|---------------------------------------------------------------------|
D|-33333333777777770000000233333333-------3333333377777777000000223--3-|


D|---------7x-------10-x---12x--12-------------------------------|
B|---------------------------------------------------------------|
G|---------------------------------------------------------------|
D|---------------------------------------------------------------|
A|---------------------------------------------------------------|
D|---------3x--3-3/7-7-x--7-0x-7-0---0000------------------------|

D|---------7x------10-x---12-------------------------------------|
B|---------------------------------------------------------------|
G|---------------------------------------------------------------|
D|---------------------------------------------------------------|
A|---------------------------------------------------------------|
D|---------3x-3-3/7-7-x--7-0-----------5\3-----------------------|


(build up as you go through each time on these)
D|----------------------------------------------------------------------------------------------|
B|----------------------------------------------------------------------------------------------|
G|----------------------------------------------------------------------------------------------|
D|----------------------------------------------------------------------------------------------|x2
A|----------------------12-12-12----12-12-12-12-15-15-15-15-15-15-15-15-15-15-15-15-15-15-15-15-|
D|-12-12-12-12-12-12-15----------15-------------15-15-15-15-15-15-15-15-15-15-15-15-15-15-15-15-|

D|----------------------------------------------------------------------------------------------|
B|----------------------------------------------------------------------------------------------|
G|----------------------------------------------------------------------------------------------|
D|----------------------------------------------------------------------------------------------|
A|----------------------12-12-12----12-12-12-12-15-15-15-15-15-15-15-15-15-13-13-13-13-13-13-13-|
D|-12-12-12-12-12-12-15----------15-------------15-15-15-15-15-15-15-15-15-15-15-15-15-15-15-15-|

D|----------------------------------------------------------------------------------------------|
B|----------------------------------------------------------------------------------------------|
G|----------------------------------------------------------------------------------------------|
D|----------------------------------------------------------------------------------------------|
A|----------------------12-12-12----12-12-12-12-15-15-15-15-15-15-15-15-15-15-15-15-15-15-15-15-|
D|-12-12-12-12-12-12-15----------15-------------15-15-15-15-15-15-15-15-15-15-15-15-15-15-15-15-|

D|----------------------------------------------------------------------------------------------|
B|----------------------------------------------------------------------------------------------|
G|----------------------------------------------------------------------------------------------|
D|----------------------------------------------------------------------------------------------|
A|----------------------12-12-12----12-12-12-12-15-15-15-15-15-15-15-15-15-13-13-13-13-13-13-13-|
D|-12-12-12-12-12-12-15----------15-------------15-15-15-15-15-15-15-15-15-15-15-15-15-15-15-15-|

Outro:
D|-----------------------------------------------------------|
B|-----------------------------------------------------------|
G|-----------------------------------------------------------|
D|----------------------------------(x7)---------------------|
A|-----------------------------------------------------------|
D|-33333333777777770000000233333333-------3-3/7-----7\0------|

****I added the last slide, it's not how it actually is when Joe plays it I just 
like playing it to match the last note.
            
Submit corrections


        Breezeblocks  lessons Hard to play? Try these video lessons and learn fast Breezeblocks  lessons
        
↑ Back to top | Tablatures and chords for acoustic guitar and electric guitar, ukulele, drums are parodies/interpretations of the original songs. You may use it for private study, scholarship, research or language learning purposes only