» » »

Alter Bridge - Rise Today Tabs

Artists:  A B C D E F G H I J K L M N O P Q R S T U V W X Y Z # 

Rise Today Tabs

(ver. 3) Click to play this song!
Alter Bridge
 Rating:
4.3/5 (13 votes)

 Rise Today lessons Tabs too difficult? Try these video lessons and learn fast
 
                Intro und Verse
/ D  / F  / C  / G - F  / 2x ( Bass in 2nd time)
/ F  / G   /

Chorus
/ D  /   / C  /   / F  G  / G - F - D / 2x
/ D  /   /

Verse 2
/ D  / F  / C  / G - F  / 2x ( Bass in 2nd time)
/ F  / G   /

Chorus
/ D  /   / C  /   / F  G  / G - F - D / 2x
/ D  /   /

Bridge (HERE TRANSCRIBED FOR Eb TUNING, FOR ORIGINAL PLAY HALF STEP UP)

e||----------------|-------------------|-----------|---------------|
B||----------------|-------------------|-----------|---------------|
G||.---------------|-------------------|-----------|---------------|
D||.-----------4---|------------4------|-----------|---------------|
A||--0--0----4-----|--0--0----4--------|-----------|---------------|
E||----------------|-------------------|-2-2-2-2-2-|-2-2-2-2-2-2\--|

e|--------------------|-------------------||
B|--------------------|-------------------||
G|--------------------|------------------.|| 2x
D|-------------2------|------------------.||
A|-4--------4-----4---|-4--------4--4--2--||
E|----3--2------------|----3--2-----------||

e||----------------|-------------------|-----------|---------------||
B||----------------|-------------------|-----------|---------------||
G||.---------------|-------------------|-----------|--------------.||
D||.-----------4---|------------4------|-----------|--------------.|| 2x
A||--0--0----4-----|--0--0----4--------|-----------|---------------||
E||----------------|-------------------|-2-2-2-2-2-|-2-2-2-2-2-2\--||

Quiet Chorus
/ D  /   / C  /   / F  G  / G - F - D /

Chorus / Solo, continue until end
/ D  /   / C  /   / F  G  / G - F - D /            
Submit corrections


        Rise Today lessons Hard to play? Try these video lessons and learn fast Rise Today lessons
        
↑ Back to top | Tablatures and chords for acoustic guitar and electric guitar, ukulele, drums are parodies/interpretations of the original songs. You may use it for private study, scholarship, research or language learning purposes only