» » »

All Time Low - Nice2Knou Tabs

Artists:  A B C D E F G H I J K L M N O P Q R S T U V W X Y Z # 

Nice2Knou Tabs

(ver. 1) Click to play this song!
All Time Low
 Rating:
4.3/5 (26 votes)

 Nice2Knou  lessons Tabs too difficult? Try these video lessons and learn fast
 
                [Intro]
| Slide in between chord changes.
eb|---------------------------------------------------------------------------------------------|
Bb|---------------------------------------------------------------------------------------------|
Gb|--11-11-11-11--13-13-13---6-6-6-6--8-8-8----4-4-4-4--6-6-6----3-3-3-3-3-3-3------------------|
Db|--x--x--x--x---x--x--x----x-x-x-x--x-x-x----x-x-x-x--x-x-x----x-x-x-x-x-x-x------------------|
Ab|--9--9--9--9---11-11-11---4-4-4-4--6-6-6----2-2-2-2--4-4-4----1-1-1-1-1-1-1------------------|
Eb|---------------------------------------------------------------------------------------------|(x4)


[Verse 1]
N.C.
We always say that we'll keep in touch, nobody does, but it don't matter much

One last call at the corner store, nights on ice if we don't score
eb|--------------------------------------------------------------------------------------------|
Bb|--------------------------------------------------------------------------------------------|
Gb|--------------------------------------------------------------------------------------------|
Db|--6-6-6-6-6-6-6--6-6-6-6-6-6-6--6-6-6-6-6-6-6--6-6-6-6-6-6-6--9-9-9-9-9-9-9--9-9-9-9-9-9-9--|
Ab|--6-6-6-6-6-6-6--6-6-6-6-6-6-6--6-6-6-6-6-6-6--6-6-6-6-6-6-6--9-9-9-9-9-9-9--9-9-9-9-9-9-9--|
Eb|--4-4-4-4-4-4-4--4-4-4-4-4-4-4--4-4-4-4-4-4-4--4-4-4-4-4-4-4--7-7-7-7-7-7-7--7-7-7-7-7-7-7--|

[Pre-Chorus]
N.C.
One more time for second chances, we just wanna do some damage

[Chorus 1]
| Slide in between chord changes.
eb|---------------------------------------------------------------------------------|
Bb|---------------------------------------------------------------------------------|
Gb|--3-3-3-3-3-3-3-3-3-3-3--6-6-6--8-8-8-8-8-8-8-8-8-8-8--16-16-16-16--15-15-15-15--|
Db|--x-x-x-x-x-x-x-x-x-x-x--x-x-x--x-x-x-x-x-x-x-x-x-x-x--x--x--x--x---x--x--x--x---|
Ab|--1-1-1-1-1-1-1-1-1-1-1--4-4-4--6-6-6-6-6-6-6-6-6-6-6--14-14-14-14--13-13-13-13--|
Eb|---------------------------------------------------------------------------------|cont.

eb|-cont'd---------------------------------------------------------|
Bb|----------------------------------------------------------------|
Gb|--11-11-11-11-11-11-11-11-11--6-6-6-6-6-6-6-6-6-6-6-6-6-6-6-----|
Db|--x--x--x--x--x--x--x--x--x---x-x-x-x-x-x-x-x-x-x-x-x-x-x-x-----|
Ab|--9--9--9--9--9--9--9--9--9---4-4-4-4-4-4-4-4-4-4-4-4-4-4-4-----|
Eb|----------------------------------------------------------------|(2x)

[Verse 2]
Call out the names that you used to know...
eb|-----------------------------------------------------------------------------------------------|
Bb|-----------------------------------------------------------------------------------------------|
Gb|-----------------------------------------------------------------------------------------------|
Db|--6-6-6-6-6-6-6--6-6-6-6-6-6-6--6-6-6-6-6-6-6--6-6-6-6-6-6-6--9-9-9-9-9-9-9--9-9-9-9-9-9-9-----|
Ab|--6-6-6-6-6-6-6--6-6-6-6-6-6-6--6-6-6-6-6-6-6--6-6-6-6-6-6-6--9-9-9-9-9-9-9--9-9-9-9-9-9-9-----|
Eb|--4-4-4-4-4-4-4--4-4-4-4-4-4-4--4-4-4-4-4-4-4--4-4-4-4-4-4-4--7-7-7-7-7-7-7--7-7-7-7-7-7-7-----|

eb|-----------------------------------------------------------------------------------------------|
Bb|-----------------------------------------------------------------------------------------------|
Gb|-----------------------------------------------------------------------------------------------|
Db|--9-9-9-9-9-9-9--9-9-9-9-9-9-9--6-6-6-6-6-6-6-6-6-6-6-6-6-6-6-6-6-6-6-6-6-6-6-6-6-6-6-6-6-6-6--|
Ab|--9-9-9-9-9-9-9--9-9-9-9-9-9-9--6-6-6-6-6-6-6-6-6-6-6-6-6-6-6-6-6-6-6-6-6-6-6-6-6-6-6-6-6-6-6--|
Eb|--7-7-7-7-7-7-7--7-7-7-7-7-7-7--4-4-4-4-4-4-4-4-4-4-4-4-4-4-4-4-4-4-4-4-4-4-4-4-4-4-4-4-4-4-4--|

eb|-----------------------------------|
Bb|-----------------------------------|
Gb|-----------------------------------|
Db|--9-9-9-9-9-9-9--9-9-9-9-9-9-9-----|
Ab|--9-9-9-9-9-9-9--9-9-9-9-9-9-9-----|
Eb|--7-7-7-7-7-7-7--7-7-7-7-7-7-7-----|

[Pre-Chorus 2]
N.C.
One more time for second chances, we just wanna do some damage

[Chorus 2]
| Slide in between chord changes.
eb|---------------------------------------------------------------------------------|
Bb|---------------------------------------------------------------------------------|
Gb|--3-3-3-3-3-3-3-3-3-3-3--6-6-6--8-8-8-8-8-8-8-8-8-8-8--16-16-16-16--15-15-15-15--|
Db|--x-x-x-x-x-x-x-x-x-x-x--x-x-x--x-x-x-x-x-x-x-x-x-x-x--x--x--x--x---x--x--x--x---|
Ab|--1-1-1-1-1-1-1-1-1-1-1--4-4-4--6-6-6-6-6-6-6-6-6-6-6--14-14-14-14--13-13-13-13--|
Eb|---------------------------------------------------------------------------------|cont.

eb|-cont'd---------------------------------------------------------|
Bb|----------------------------------------------------------------|
Gb|--11-11-11-11-11-11-11-11-11--6-6-6-6-6-6-6-6-6-6-6-6-6-6-6-----|
Db|--x--x--x--x--x--x--x--x--x---x-x-x-x-x-x-x-x-x-x-x-x-x-x-x-----|
Ab|--9--9--9--9--9--9--9--9--9---4-4-4-4-4-4-4-4-4-4-4-4-4-4-4-----|
Eb|----------------------------------------------------------------|(2x)

[Bridge]
One last time...
eb|----------------------------------------------------------------|
Bb|----------------------------------------------------------------|
Gb|---------------------------------6-6-6-6-6-6-6-6-6-6-6-6-6-6-6--|
Db|--2-2-2-2-2-2-2-2-2-2-2-2-2-2-2--6-6-6-6-6-6-6-6-6-6-6-6-6-6-6--|
Ab|--2-2-2-2-2-2-2-2-2-2-2-2-2-2-2--4-4-4-4-4-4-4-4-4-4-4-4-4-4-4--|
Eb|--0-0-0-0-0-0-0-0-0-0-0-0-0-0-0---------------------------------|

eb|--------------7-------------------------------------------------|
Bb|------------------7---------------------------------------------|
Gb|------6---8-----------6---8-------------------------------------|
Db|--9-------------------------------------------------------------|
Ab|----------------------------------------------------------------|
Eb|----------------------------------------------------------------|

| Slide in between chord changes.

eb|---------------------------------------------------------------------------------------------|
Bb|---------------------------------------------------------------------------------------------|
Gb|--11-11-11-11--13-13-13---6-6-6-6--8-8-8----4-4-4-4--6-6-6----3-3-3-3-3-3-3------------------|
Db|--x--x--x--x---x--x--x----x-x-x-x--x-x-x----x-x-x-x--x-x-x----x-x-x-x-x-x-x------------------|
Ab|--9--9--9--9---11-11-11---4-4-4-4--6-6-6----2-2-2-2--4-4-4----1-1-1-1-1-1-1------------------|
Eb|---------------------------------------------------------------------------------------------|(x2)

[Chorus 3]
| Slide in between chord changes.
eb|---------------------------------------------------------------------------------------|
Bb|---------------------------------------------------------------------------------------|
Gb|--3-3-3-3-3-3-3-3-3-3-3--6-6-6--8-8-8-8-8-8-8-8-8-8-8--16-16-16-16--15-15-15-15--------|
Db|--x-x-x-x-x-x-x-x-x-x-x--x-x-x--x-x-x-x-x-x-x-x-x-x-x--x--x--x--x---x--x--x--x---------|
Ab|--1-1-1-1-1-1-1-1-1-1-1--4-4-4--6-6-6-6-6-6-6-6-6-6-6--14-14-14-14--13-13-13-13--------|
Eb|---------------------------------------------------------------------------------cont.-|

eb|-cont'd---------------------------------------------------------|
Bb|----------------------------------------------------------------|
Gb|--11-11-11-11-11-11-11-11-11--6-6-6-6-6-6-6-6-6-6-6-6-6-6-6-----|
Db|--x--x--x--x--x--x--x--x--x---x-x-x-x-x-x-x-x-x-x-x-x-x-x-x-----|
Ab|--9--9--9--9--9--9--9--9--9---4-4-4-4-4-4-4-4-4-4-4-4-4-4-4-----|
Eb|----------------------------------------------------------------|(2x)

[Outro]
One last time...
eb|----------------------------------------------------------------|
Bb|----------------------------------------------------------------|
Gb|----------------------------------------------------------------|
Db|--2-2-2-2-2-2-2-2-2-2-2-2-2-2-2---------------------------------|
Ab|--2-2-2-2-2-2-2-2-2-2-2-2-2-2-2---------------------------------|
Eb|--0-0-0-0-0-0-0-0-0-0-0-0-0-0-0---------------------------------|
            
Submit corrections


        Nice2Knou  lessons Hard to play? Try these video lessons and learn fast Nice2Knou  lessons
        
↑ Back to top | Tablatures and chords for acoustic guitar and electric guitar, ukulele, drums are parodies/interpretations of the original songs. You may use it for private study, scholarship, research or language learning purposes only