Home » A » All Time Low »

All Time Low - I Hate That For You Chords

Artists:  A B C D E F G H I J K L M N O P Q R S T U V W X Y Z # 

I Hate That For You Chords

(ver. 1) Click to play this song!
All Time Low
 Rating:
4.3/5 (13 votes)
                [Intro]
e|------------------------------------------------------------------------------------------------|
B|-8~---8-8---8----3--3--3~----7~-7---7----7-7-7---8\7----8~---8-8---8----3--3--3~----7~-7---7-7--|
G|-9~---9-9---9----4--4--4~----7~-7---7----7-7-7---7-7----9~---9-9---9----4--4--4~----7~-7---7-7--|
D|-10~--1010--10---5--5--5~----7~-7---7----7-7-7---7-7----10~--1010--10---5--5--5~----7~-7---7-7--|
A|-10~--1010--10-x-5--5--5~-xx-5~-5-x-5-xx-5-5-5-x-5-5-xx-10~--1010--10-x-5--5--5~-xx-5~-5-x-5-5--|
E|-8~---8-8---8--x-3--3--3~-xx------x---xx-------x-----xx-8~---8-8---8--x-3--3--3~-xx------x------|
 
[Verse 1]
 
Guitar 1
e|------------------------------|
B|-1~-------5~------8~-----7~---|
G|-2~-------5~------7~-----7~---|
D|------------------------------|
A|------------------------------|
E|---------------------------4x-|
 
Guitar 2 (bass transcribed to guitar)
e|-------------------------------------------------------------------------------------------|
B|-------------------------------------------------------------------------------------------|
G|-------------------------------------------------------------------------------------------|
D|-------------------------------------------------------------------------------------------|
A|--0~----/3~--------5~-------0~----/3~---/5~-------5~-----/12~---15~---/17~-----------------|
E|--------------3~----------------------------3~------------------------------15~---15~\10~--|
 
[Chorus]
e|-----------------------------------------------------3x-|-------------------------------------------|
B|-8~---8-8---8----3--3--3~----7~-7---7----7-7-7---8\7----|-8~---8-8---8----3--3--3~----7~-7---7~\----|
G|-9~---9-9---9----4--4--4~----7~-7---7----7-7-7---7-7----|-9~---9-9---9----4--4--4~----7~-7---7~\----|
D|-10~--1010--10---5--5--5~----7~-7---7----7-7-7---7-7----|-10~--1010--10---5--5--5~----7~-7---7~\----|
A|-10~--1010--10-x-5--5--5~-xx-5~-5-x-5-xx-5-5-5-x-5-5-xx-|-10~--1010--10-x-5--5--5~-xx-5~-5-x-5~\-xx-|
E|-8~---8-8---8--x-3--3--3~-xx------x---xx-------x-----xx-|-8~---8-8---8--x-3--3--3~-xx------x-----xx-|
 
[Postchorus]
 
Guitar 1
e|-----------------------------------------------------2x-|
B|-8~---8-8---8----3--3--3~----7~-7---7----7-7-7---8\7----|
G|-9~---9-9---9----4--4--4~----7~-7---7----7-7-7---7-7----|
D|-10~--1010--10---5--5--5~----7~-7---7----7-7-7---7-7----|
A|-10~--1010--10-x-5--5--5~-xx-5~-5-x-5-xx-5-5-5-x-5-5-xx-|
E|-8~---8-8---8--x-3--3--3~-xx------x---xx-------x-----xx-|
 
Guitar 2
e|-------------------------------------------------|
B|-------------------------------------------------|
G|-7/1616~--12~\-xx-7/1616~--12~\------------------|
D|---------------xx--------------------------------|
A|-5/1414~--10~\-xx-5/1414~--10~\------------------|
E|-------------------------------------------------|
 
[Verse 2]
e|------------------------------|------------------3~----3~----2~---5~---3~---|-10---|-10---|
B|-1~-------5~------8~-----7~---|----------1~------1~----3~----3~---5~---1~---|----8-|----7-|
G|-2~-------5~------7~-----7~---|----------2~------0~----0~----2~---5~---0~---|------|------|
D|------------------------------|----------2~------2~----0~----0~---7~---2~---|------|------|
A|------------------------------|-xx---xx--0~---------------------------------|------|------|
E|---------------------------2x-|-xx---xx-------------------------------------|---4x-|---3x-|
 
[Chorus]
e|-----------------------------------------------------3x-|-------------------------------------------|
B|-8~---8-8---8----3--3--3~----7~-7---7----7-7-7---8\7----|-8~---8-8---8----3--3--3~----7~-7---7~\----|
G|-9~---9-9---9----4--4--4~----7~-7---7----7-7-7---7-7----|-9~---9-9---9----4--4--4~----7~-7---7~\----|
D|-10~--1010--10---5--5--5~----7~-7---7----7-7-7---7-7----|-10~--1010--10---5--5--5~----7~-7---7~\----|
A|-10~--1010--10-x-5--5--5~-xx-5~-5-x-5-xx-5-5-5-x-5-5-xx-|-10~--1010--10-x-5--5--5~-xx-5~-5-x-5~\-xx-|
E|-8~---8-8---8--x-3--3--3~-xx------x---xx-------x-----xx-|-8~---8-8---8--x-3--3--3~-xx------x-----xx-|
 
[Postchorus 2]
 
Guitar 1
e|-----------------------------------------------------2x-|
B|-8~---8-8---8----3--3--3~----7~-7---7----7-7-7---8\7----|
G|-9~---9-9---9----4--4--4~----7~-7---7----7-7-7---7-7----|
D|-10~--1010--10---5--5--5~----7~-7---7----7-7-7---7-7----|
A|-10~--1010--10-x-5--5--5~-xx-5~-5-x-5-xx-5-5-5-x-5-5-xx-|
E|-8~---8-8---8--x-3--3--3~-xx------x---xx-------x-----xx-|
 
Guitar 2
e|--------------------------------||------------------------------------------|-1.------|-2.--------------||
B|--------------------------------||------------------------------------------|---------|------------10~\-||
G|-7/1616~--12~\-xx-7/1616~--12~\-||-/12~-11-9--9--11\9~-7~-4~----------------|---------|-------11-12-----||
D|--------------------------------||---------------------------5~--9~-12~--5~-|-9~-12~\-|---9-12----------||
A|-5/1414~--10~\-xx-5/1414~--10~\-||-/10~-9--7--7--9-\7~-5~-2~----------------|---------|-12--------------||
E|--------------------------------||---------------------------3~--7~-10~--3~-|-7~-10~\-|-----------------||
 
[Final Chorus]
e|-------------------------------------------------------------------------------------------xx---xx-|
B|-8~---8-8---8----3--3--3~----7~-7---7----7-7-7---8\7----8~---8-8---8----3--3--3~----7~-7---xx---xx-|
G|-9~---9-9---9----4--4--4~----7~-7---7----7-7-7---7-7----9~---9-9---9----4--4--4~----7~-7---xx---xx-|
D|-10~--1010--10---5--5--5~----7~-7---7----7-7-7---7-7----10~--1010--10---5--5--5~----7~-7---xx---xx-|
A|-10~--1010--10-x-5--5--5~-xx-5~-5-x-5-xx-5-5-5-x-5-5-xx-10~--1010--10-x-5--5--5~-xx-5~-5-x-xx---xx-|
E|-8~---8-8---8--x-3--3--3~-xx------x---xx-------x-----xx-8~---8-8---8--x-3--3--3~-xx------x-xx---xx-|
 
Guitar 1
e|-3~------3~------2~--2~--3p2~\0h2~--|-3~------3~------2~---xx-3-----3~------3~------2~----2-2~---2-2-2-|
B|-3~---xx-3~---xx-3~--3~--3----------|-3~---xx-3~---xx-3~---xx-3--x8-3~---xx-3~---xx-3~----3-3~---3-3-3-|
G|-0~---xx-0~---xx-2~--2~--2----------|-0~---xx-0~---xx-2~---xx-0-----0~---xx-0~---xx-2~----2-2~---2-2-2-|
D|-2~---xx-0~---xx-0~--0~--0----------|-2~---xx-0~---xx-0~---xx-------2~---xx-0~---xx-0~----0-0~---0-0-0-|
A|-3~---xx-2~---xx--------------------|-3~---xx-2~---xx------xx-------3~---xx-2~---xx--------------------|
E|------xx-3~---xx-----------------2x-|------xx-3~---xx------xx------------xx-3~---xx--------------------|
 
Guitar 2
e|------------------------------------|---------------------------------10-12-----10~-----------------|
B|-----10~--------10~-----------------|-----10~--------10~----------10-------10-12---------------12~\-|
G|-12~-----12-12~-----12-11~-12~-14~--|-12~-----12-12~-----12-11~---------------------------14~~~~~~\-|
D|------------------------------------|---------------------------------------------------------------|
A|------------------------------------|---------------------------------------------------------------|
E|---------------------------------2x-|---------------------------------------------------------------|
            
Submit corrections

↑ Back to top | Tablatures and chords for acoustic guitar and electric guitar, ukulele, drums are parodies/interpretations of the original songs. You may use it for private study, scholarship, research or language learning purposes only