Home » A » All Time Low »

All Time Low - How The Story Ends Tabs

Artists:  A B C D E F G H I J K L M N O P Q R S T U V W X Y Z # 

How The Story Ends Tabs

(ver. 1) Click to play this song!
All Time Low
 Rating:
3.2/5 (30 votes)
                Intro (guitar 1 only until the %):             %
e|-------------------------------|--------1.-|---------2.-|| Play "1.", then play first bar, then
B|-------------------------------|-----------|------------|| skip "1." and play "2." instead
G|-6~-6~-------8~---8~~~\--------|-----------|-------....-||
D|-6~-6~-x-6~--8~---8~~~\4-4-4-4-|-/7~--6~---|-/7777-6666-|| Replicate the delay on the last chord
A|-4~-4~-x-6~--6~---6~~~\4-4-4-4-|-/7~--6~---|-/7777-6666-|| there (466) by lifting your fretting hand 
E|-------x-4~------------2-2-2-2-|-/5~--4~---|-/5555-4444-|| slightly after every strum
                                         ^delay effect
Verse 1:                                   is used here

Guitar 1
e|--------------------------------------------------|
B|--------------------------------------------------|
G|----------------------131313----------------------|
D|-6---------------------------6--------------------|
A|-4--x32-4--x16-6--x16-111111-4--x32-4--x16-6--x16-|
E|--------2------4--------------------2------4------|
   *      *      *             *      *      *
Guitar 2 (comes in at 0:19)
e|--------------------21~~~\-|------------|---------------------|-----------------------------------------|
B|----------------21~~~------|------------|-1111-1313-1414-1313-|-1313-1414-161616-14-1313-1414-16161616\-|
G|---------------------------|-10--x14-88-|-6-6--8-8--1010-8-8--|-1010-1111-131313-11-1010-1111-13131313\-|
D|---------------------------|------------|---------------------|-----------------------------------------|
A|----Notes instead----------|------------|---------------------|-----------------------------------------|
E|----of harmonics-----------|-----2x-----|---------2x----------|-----------------------------------------|
                                               ^Two guitar parts put into one^
Prechorus (both guitars):
e|----------------------------|
B|----------------------------|
G|----------------------------|
D|-8~---6~---4~----------4444-|
A|-8~---6~---4~-------4444444-|
E|-6~---4~---2~-2222222222222-|
                ********Gradually lift PM
Chorus:

Guitar 1
e|----------------------------------------------------------------|
B|----------------------------7-6---------------------------------|
G|-6------------------------------8-6-6---------------------------|
D|-6--x16-----------------------------6--x16----------------------|
A|-4------4--x16-6--x16-4--x16--------4------4--x16-6--x16-4--x16-|
E|--------2------4------2--------------------2------4------2------|

Guitar 2 (not 100% accurate)
e|-------------------2x-|---------------------------------------------------------|-14-13------|---------||
B|----------------------|---------------------------------------------------------|------16-14-|---------||
G|-10-----1111-10-8~-6~-|-1313~-1313~-1313~-1313~-13~-13~-1111~-1111~-1111~-1111~-|------------|-11~-11~-||
D|-----x8---------------|---------------------------------------------------------|------------|---------||
A|-8------9-9--8--6~-4~-|-1111~-1111~-1111~-1111~-11~-11~-9-9~--9-9~--9-9~--9-9~--|------------|-9~--9~--||
E|----------------------|---------------------------------------------------------|---------1.-|------2.-||

Postchorus:

Guitar 1
e|--------------------------------|-------1.-|----------2.-|| 
B|--------------------------------|----------|-------------|| 
G|-6~-6~--------8~---8~-----------|----------|-------------||
D|-6~-6~-x-6~---8~---8~--4~-4-4-4-|-/7-7-7-7-|-/777-x-6666-|| 
A|-4~-4~-x-6~---6~---6~--4~-4-4-4-|-/7-7-7-7-|-/777-x-6666-|| 
E|-------x-4~------------2~-2-2-2-|-/5-5-5-5-|-/555-x-4444-||

e|-----------------------------------------------------------------------------------------------------|
B|--------------------6h7-6----------------------------------------6h7-6--------9--9--9--9----7-7------|
G|-10~10~10-6~--10~-6-------8~-6~--11~-10-8~-10-10~10~10-6~--10~-6-------8~-6~--11b11b11b11b--9b9b-10~-|
D|-----------------------------------------------------------------------------------------.-----------|
A|-8~-8~-8~-4~--8~-----------------9~--8--6~-8--8~-8~-8~-4~--8~------------------------------------8~--|
E|-----------------------------------------------------------------------------------------------------|

Verse 2:

Guitar 1
e|-------------------------------------------|
B|-------------------------------------------|
G|-------------------------------------------|
D|-6--------------------6--------------------|
A|-4--x32-4--x16-6--x16-4--x32-4--x16-6--x16-|
E|--------2------4-------------2------4------|
   *      *      *      *      *      *
Guitar 2
e|--------16~~~~~~~-----------------------------------|--8x---|---------14~--------|------.---------------|
B|------------14~~~-----------------------------------|----.--|--------------------|--.--13--14~----------|
G|-(10~)------------13~-11~-10~-6~---13~-11~-10~-8~---|-1313--|-13h15-13----15~-15-|-15------------13-----|
D|----------------------------------------------------|-------|--------------------|-------------------x6-|
A|-(8~)-------------11~-9~--8~--4~---11~-9~--8~--6~---|-1111--|--------------------|---------------11-----|
E|----------------------------------------------------|-------|----------2x--------|----------------------|
            ^synth sounds                                         ^synth sounds^
Prechorus 2:

Guitar 1
e|----------------------------|
B|----------------------------|
G|----------------------------|
D|-8~---6~---4~----------4444-|
A|-8~---6~---4~-------4444444-|
E|-6~---4~---2~-2222222222222-|
                ********Gradually lift PM
Guitar 2
e|--------------------------(4.8)~-------|
B|---------------------------------------|
G|-10~--8~--\6~--------------------------|
D|---------------------------------------|
A|-8~---6~-------------------------------|
E|---------------------------------------|

Repeat:
Chorus

Bridge:

Guitar 1
e|-------------------------------------------------------------------------------|
B|-------------------------------------------------------------------------------|
G|-3--------------3---------------------3~-----------3~--------------------------|
D|-3--x16-4-------3--x16-4--------------3~---(pause)-3~---4~---------------------|
A|-1------4--x16--1------4--x12-(pause)-1~-----------1~---4~---------------------|
E|--------2--------------2--------------------------------2~---------------------|

e|---------------|--------------------1.-|------------------2.-|--------------3.-|--4.-|| Play the 0's by
B|---------------|-----------------------|----------------(0~)-|-----------------|-----|| strumming the
G|-6~---/8~-/10~-|-/11~---10h11~---10~---|----------------(0~)-|-/11~---/13~-11~-|-11~-|| strings by the
D|---------------|-----------------------|-4--------------(0~)-|-----------------|-----|| tuning pegs
A|-4~---/6~-/8~--|-/9~-------------------|-4--x12-(pause)-(0~)-|-/9~----/11~-9~--|-9~--||
E|---------------|-----------------------|-2--------------(0~)-|-----------------|-----||

Break (guitar 2 only):
e|-8~------(pause)---9~-------------------------------|
B|----------------------------------------------------|
G|-------------------^fades in------------------------|
D|----------------------------------4~----------------|
A|----------------------------------4~----------------|
E|----------------------------------2~----------------|

Final chorus:

Guitar 1
e|-----------------------------------------------------------------|
B|-----------------------------------------------------------------|
G|-6-----------------------------------6---------------------------|
D|-6--x16----------------------(pause)-6--x16----------------------|
A|-4------4--x16-6--x16-4--x16---------4------4--x16-6--x16-4--x16-|
E|--------2------4------2---------------------2------4------2------|

Guitar 2
e|-------------------2x-|---------------------------------------------------------|----------|---------||
B|----------------------|---------------------------------------------------------|-14141414-|---------||
G|-10-----1111-10-8~-6~-|-1313~-1313~-1313~-1313~-13~-13~-1111~-1111~-1111~-1111~-|----------|-11~-11~-||
D|-----x8---------------|---------------------------------------------------------|----------|---------||
A|-8------9-9--8--6~-4~-|-1111~-1111~-1111~-1111~-11~-11~-9-9~--9-9~--9-9~--9-9~--|----------|-9~--9~--||
E|----------------------|---------------------------------------------------------|-------1.-|------2.-||

Postchorus:

Guitar 1
e|--------------------------------|-------1.-|----------2.-|| 
B|--------------------------------|----------|-------------|| 
G|-6~-6~--------8~---8~-----------|----------|-------------||
D|-6~-6~-x-6~---8~---8~--4~-4-4-4-|-/7-7-7-6-|-/777-x-6666-||
A|-4~-4~-x-6~---6~---6~--4~-4-4-4-|-/7-7-7-6-|-/777-x-6666-|| 
E|-------x-4~------------2~-2-2-2-|-/5-5-5-4-|-/555-x-4444-|| 

Guitar 2
e|---------------------------------------------------------------------------------------------|
B|------------------------------------------------------------6h7-6--------9--9--9--9----7-7---|
G|-6~-6~--------8~---8~--------------------10~10~10-6~--10~-6-------8~-6~--11b11b11b11b--9b9b--|
D|-6~-6~-x-6~---8~---8~--4~-4-4-4-/7-7-7-6--------------------------------------------.------.-|
A|-4~-4~-x-6~---6~---6~--4~-4-4-4-/7-7-7-6-8~-8~-8~-4~--8~-------------------------------------|
E|-------x-4~------------2~-2-2-2-/5-5-5-4-----------------------------------------------------|

Outro (guitar 1 only):
e|-------------------------------|----------1.-|---------2.-|| 
B|-------------------------------|-------------|------------||
G|-6~-6~-------8~---8~~~\--------|-------------|------------||
D|-6~-6~-x-6~--8~---8~~~\4-4-4-4-|-/7-7-7-6~---|-/7777-6666-||
A|-4~-4~-x-6~--6~---6~~~\4-4-4-4-|-/7-7-7-6~---|-/7777-6666-|| 
E|-------x-4~------------2-2-2-2-|-/5-5-5-4~---|-/5555-4444-|| 
                                          ^delay effect
                                           is used here            
Submit corrections

↑ Back to top | Tablatures and chords for acoustic guitar and electric guitar, ukulele, drums are parodies/interpretations of the original songs. You may use it for private study, scholarship, research or language learning purposes only