Home » A » All Time Low »

All Time Low - Drugs And Candy Tabs

Artists:  A B C D E F G H I J K L M N O P Q R S T U V W X Y Z # 

Drugs And Candy Tabs

(ver. 1) Click to play this song!
All Time Low
 Rating:
4.3/5 (9 votes)
                [Intro/Verse]

Guitar 1 4x
e|----------------------------------------------------------------|
B|----------------------------------------------------------------|
G|-----3~-----5~-3-----3-----5~-3-----3~-----5~-3-----3~-----2~-0-|
D|-5-5----5-5------1-1---1-1----------------------3-3----3-3------|
A|--------------------------------1-1----1-1----------------------|
D|----------------------------------------------------------------|

Guitar 2 (comes in on the second time)
e|----------------------------------------------------------------|
B|----------------------------------------------------------------|
G|----------------------------------------------------------------|
D|------------------------------------------------3-3-3-3-3-3-3-3-|
A|--------------------------------1-1-1-1-1-1-1-1-3-3-3-3-3-3-3-3-|
D|----------------------------------------------------------------|
                                  * * * * * * * * * * * * * * * *
[Prechorus]
e|-------------------------------------------------------------------|
B|------10~---11~----------------------------------------------------|
G|-7~---------------7~-----------------------------------------------|
D|-------------------------------------------------------------------|
A|-------------------------------------------------------------------|
D|-------------------------------------------------------------------|

[Chorus]
e|------------------------------------------------------------------------------------------------|
B|------------------------------------------------------------------------------------------------|
G|-------------3~----------------------3~---------7-----8-----10----5-----7-----8-----10----5-----|
D|-5~----1~----3~----3~----5~----1~----3~----3~------x8----x8----x8----x8----x8----x8----x8----x8-|
A|-5~----1~----1~----3~----5~----1~----1~----3~---5-----6-----8-----3-----5-----6-----8-----3-----|
D|-5~----1~----------3~----5~----1~----------3~---------------------------------------------------|

[Verse 2] 4x:
e|----------------------------------------------------------------|
B|----------------------------------------------------------------|
G|-----3~-----5~-3-----3-----5~-3-----3~-----5~-3-----3~-----2~-0-|
D|-5-5----5-5------1-1---1-1----------------------3-3----3-3------|
A|--------------------------------1-1----1-1----------------------|
D|----------------------------------------------------------------|

[Chorus 2]
e|--------------------------------------------------------------------------------------------------------|
B|--------------------------------------------------------------------------------------------------------|
G|---------------3~-3~-----------------------3~-3~---------7-----8-----10----5-----7-----8-----10----5----|
D|-5~-5~--1~-1~--3~-3~--3~-3~--5~-5~--1~-1~--3~-3~--3~-3~----x8----x8----x8----x8----x8----x8----x8----x8-|
A|-5~-5~--1~-1~--1~-1~--3~-3~--5~-5~--1~-1~--1~-1~--3~-3~--5-----6-----8-----3-----5-----6-----8-----3----|
D|-5~-5~--1~-1~---------3~-3~--5~-5~--1~-1~---------3~-3~-------------------------------------------------|

[Bridge]
e|----------------------------------------------------------2x-|----------------------------------------|
B|-------------------------------------------------------------|-------3~--------------3~---------------|
G|-3-3-3-3-3-3-333-3-3-333-0-0-0-0-----------------5~-7-5-3----|-3-3~------3~----3-3~------3~--3-3~--2~-|
D|---------------------------------3-3-3-3-3-3-3-3-------------|----------------------------------------|
A|-------------------------------------------------3~-5-3-1----|----------------------------------------|
D|----------------------------------------------------------5~-|----------------------------------------|
       * *                 * * * *              
e|-------------------------------------------------------------------------------------1~-|-8---8--8-|
B|-----------3~------------3~------------3~------------3~------------3~------------3~-----|----------|
G|-----3-3~----------3-3~----------3-3~----------3-3~----------3-3~----------3-3~---------|-5---5--5-|
D|-0~------------0~------------1~------------1~-------------------------------------------|----------|
A|---------------------------------------------------------1~------------1~---------------|----------|
D|----------------------------------------------------------------------------------------|-------3x-|

[Chorus]
e|------------------------------------------------------------------------------------------------|
B|------------------------------------------------------------------------------------------------|
G|-------------3~----------------------3~---------7-----8-----10----5-----7-----8-----10----5-----|
D|-5~----1~----3~----3~----5~----1~----3~----3~------x8----x8----x8----x8----x8----x8----x8----x8-|
A|-5~----1~----1~----3~----5~----1~----1~----3~---5-----6-----8-----3-----5-----6-----8-----3-----|
D|-5~----1~----------3~----5~----1~----------3~---------------------------------------------------|

[Outro]
e|----------------------------------------------------------4x-|
B|-------------------------------------------------------------|
G|-3-3-3-3-3-3-333-3-3-333-0-0-0-0-----------------5~-7-5-3----|
D|---------------------------------3-3-3-3-3-3-3-3-------------|
A|-------------------------------------------------3~-5-3-1----|
D|----------------------------------------------------------5~-|
            
Submit corrections

↑ Back to top | Tablatures and chords for acoustic guitar and electric guitar, ukulele, drums are parodies/interpretations of the original songs. You may use it for private study, scholarship, research or language learning purposes only