Home » A » All Time Low »

All Time Low - Dark Side Of Your Room Tabs

Artists:  A B C D E F G H I J K L M N O P Q R S T U V W X Y Z # 

Dark Side Of Your Room Tabs

(ver. 1) Click to play this song!
All Time Low
 Rating:
4.3/5 (10 votes)
                [Intro/Verse (with delay)]

Guitar 1
e|-------------------------------------------------------------------------------------------|
B|-------------------------------------------------------------------------------------------|
G|-10-----3-----10-----3-----10-----3-----10-----3--------------------------3~----------3~---|
D|-10-----3-----10-----3-----10-----3-----10-----3--\\\---------------3~----3~----3~----3~---|
A|-8------1-----8------1-----8------1-----8------1--\\\--(pickscr*pe)-3~----1~----3~----1~---|
D|--------------------------------------------------\\\---------------3~----------3~---------|

Guitar 2 (0:22)
e|-------------------------------------------------|
B|-------------------------------------------------|
G|-14~---12~---\101010-14~---12------10-10-10------|
D|-------------------------------x13---------------|
A|-12~---10~---\8-8-8--12~---10------8--8--8-------|
D|-------------------------------------------------|

[Chorus]

Guitar 1
e|------------------------------------------------------------------|
B|------------------------------------------------------------------|
G|-10-----3-----10-----3----------3-----7-7-7-7-5-5-5-5-3-----------|
D|-10-----3-----10-----3----3-----3--x8-7-7-7-7-5-5-5-5-3--x8-------|
A|-8------1-----8------1----3--x8-1-----5-5-5-5-3-3-3-3-1-----------|
D|--------------------------3---------------------------------------|

Guitar 2               V fade in
e|---------------------13~----------------------------------------------|
B|----------------------------------------------------------------------|
G|----(silence)-------------14-----15-----10101010-9-9-9-9-10-----------|
D|------------------------------x8-----x8----------------------x8-------|
A|--------------------------12-----13-----8-8-8-8--7-7-7-7-8------------|
D|----------------------------------------------------------------------|

[Verse 2 (with delay)]

Guitar 1
e|---------------------------------------------------------|
B|---------------------------------------------------------|
G|-10-----3-----10-----3-----10-----3-----10-----3---------|
D|-10-----3-----10-----3-----10-----3-----10-----3---------|
A|-8------1-----8------1-----8------1-----8------1---------|
D|---------------------------------------------------------|

Guitar 2 (1:21)
e|---------------------------------------------|
B|---------------------------------------------|
G|-14~---12~---\101010-14~---12--x13-10-10-10--|
D|---------------------------------------------|
A|---------------------------------------------|
D|---------------------------------------------|

[Chorus]

Guitar 1
e|------------------------------------------------------------------|
B|------------------------------------------------------------------|
G|-10-----3-----10-----3----------3-----7-7-7-7-5-5-5-5-3-----------|
D|-10-----3-----10-----3----3-----3--x8-7-7-7-7-5-5-5-5-3--x8-------|
A|-8------1-----8------1----3--x8-1-----5-5-5-5-3-3-3-3-1-----------|
D|--------------------------3---------------------------------------|

Guitar 2               V fade in
e|---------------------13~----------------------------------------------|
B|----------------------------------------------------------------------|
G|----(silence)-------------14-----15-----10101010-9-9-9-9-10-----------|
D|------------------------------x8-----x8----------------------x8-------|
A|--------------------------12-----13-----8-8-8-8--7-7-7-7-8------------|
D|----------------------------------------------------------------------|

[SOLO]

Guitar 1
e|-------------------------------------------|
B|-------------------------------------------|
G|-10~----3~------10~----3~------------------|
D|-10~----3~------10~----3~------------------|
A|-8~-----1~------8~-----1~------------------|
D|-------------------------------------------|

Guitar 2
e|-----------13--------------------13-------------------13---------------------13---------|
B|-(13)/15-15-------15--15-----13----15-13-15-(13)/15-15-------15--15-----13-----15-13-15-|
G|-------------14-14--14--14-14--14-----------------------12-12--12--12-12--12------------|
D|----------------------------------------------------------------------------------------|
A|----------------------------------------------------------------------------------------|
D|----------------------------------------------------------------------------------------|

e|-----------13--------------------13-------------------13--------------------13---------|
B|-(13)/15-15-------15--15-----13----15-13-15-(13)/15-15--13--15--15-----13-15--15-13-15-|
G|-------------14-14--14--14-14--14------------------------------------------------------|
D|----------------------------------------------------------15--15--15-15----------------|
A|---------------------------------------------------------------------------------------|
D|---------------------------------------------------------------------------------------|

[Prechorus/Final Chorus]

Guitar 1
e|-------------------------------------------------------|
B|-6~-----5~-----3~--------------------------------------|
G|-7~-----5~-----3~--------------------------------------|
D|-7~-----5~-----3~-----5~----7~---8~--------10~---------|
A|-5~-----3~-----1~-----5~----7~---8~--------10~---------|
D|----------------------5~----7~---8~--------10~---------|

Guitar 2
e|-------------------------------------13-12----13-12----13-12----|-15---17---|-13/15---17---||
B|-------------------------------------------13-------13-------13-|-----------|--------------||
G|-10-10~---10~-10-10~---10~-----12~------------------------------|-----------|--------------||
D|----------------------------------------------------------------|-----------|--------------||
A|----------------------------------------------------------------|-----------|--------------||
D|----------------------------------------------------------------|--------1.-|-----------2.-||

Guitar 1
e|-------------------------|--------------------------------------2x-|
B|-------------------------|-----------------------------------------|
G|-10-----3-----10-----3---|-------3-----7-7-7-7-5-5-5-5-3-----------|
D|-10-----3-----10-----3---|-3-----3--x8-7-7-7-7-5-5-5-5-3--x8-------|
A|-8------1-----8------1---|-3--x8-1-----5-5-5-5-3-3-3-3-1-----------|
D|-------------------------|-3---------------------------------------|

Guitar 2               V fade in
e|---------------------13~----------------------------------------------|
B|----------------------------------------15-15-15-15-13-13-13-13-11----|
G|-17~---10~----------------10-----15--------------------------------x8-|
D|-------------(pause)----------x8-----x8-12-12-12-12-10-10-10-10-8-----|
A|-15~---8~-----------------8------13-----------------------------------|
D|----------------------------------------------------------------------|

e|-----------13--------------------13-------------------13---------------------13---------|
B|-(13)/15-15-------15--15-----13----15-13-15-(13)/15-15-------15--15-----13-----15-13-15-|
G|-------------14-14--14--14-14--14-----------------------12-12--12--12-12--12------------|
D|----------------------------------------------------------------------------------------|
A|----------------------------------------------------------------------------------------|
D|----------------------------------------------------------------------------------------|

e|-----------13--------------------13-------------------13------------------13--------|
B|-(13)/15-15-------15--15-----13----15-13-15-(13)/15-15--13--15--15-----15-16b18--x8-|
G|-------------14-14--14--14-14--14---------------------------------------------------|
D|----------------------------------------------------------15--15--15-15-------------|
A|------------------------------------------------------------------------------------|
D|------------------------------------------------------------------------------------|            
Submit corrections

↑ Back to top | Tablatures and chords for acoustic guitar and electric guitar, ukulele, drums are parodies/interpretations of the original songs. You may use it for private study, scholarship, research or language learning purposes only