Home » A » All Time Low »

All Time Low - Chemistry Tabs

Artists:  A B C D E F G H I J K L M N O P Q R S T U V W X Y Z # 

Chemistry Tabs

(ver. 1) Click to play this song!
All Time Low
 Rating:
4.3/5 (9 votes)
                
[Intro/Verse]
e|-------------------------------------------------------------------------------------------3x-|
B|----3----------------------3--------------------------3--------------------3------------------|
G|---------3----2----3~-----------3----2----3~--------------3----2----3~----------3----2----3~--|
D|---------------------------------------------1-3~--1~---1----1----1------5----5----5----5-----|
A|-1-----1----1----1------1~----1----1----1-----------------------------------------------------|
D|----------------------------------------------------------------------------------------------|

e|---------------------------------------------------------------------------------------------------|
B|----3----------------------3--------------------------3--------------------3-----------------------|
G|---------3----2----3~-----------3----2----3~--------------3----2----3~----------3----2----2----3~--|
D|---------------------------------------------1-3~--1~---1----1----1------5----5----5----5----5-----|
A|-1-----1----1----1------1~----1----1----1----------------------------------------------------------|
D|---------------------------------------------------------------------------------------------------|

[Chorus]
e|----------------------------------------------------------------2x-|
B|-------------------------------------------------------------------|
G|-----------------------------8~---8-8---8--------------------------|
D|-8~---8~---8---8~---8-8--8---8~---8-8---8----5~---------3~---3~----|
A|-8~---8~---8---8~---8-8--8---6~---6-6---6----5~---------3~---3~----|
D|-8~---8~---8---8~---8-8--8-------------------5~---------3~---3~----|

(pause)

[Verse 2]

Intro/Verse:
e|-------------------------------------------------------------------------------------------3x-|
B|----3----------------------3--------------------------3--------------------3------------------|
G|---------3----2----3~-----------3----2----3~--------------3----2----3~----------3----2----3~--|
D|---------------------------------------------1-3~--1~---1----1----1------5----5----5----5-----|
A|-1-----1----1----1------1~----1----1----1-----------------------------------------------------|
D|----------------------------------------------------------------------------------------------|

e|------------------------------------------------------------------------------------|
B|----3----------------------3--------------------------3-----------------------------|
G|---------3----2----3~-----------3----2----3~---------------3----2----3~----(pause)--|
D|---------------------------------------------1-3~--1~----1----1----1----------------|
A|-1-----1----1----1------1~----1----1----1-------------------------------------------|
D|------------------------------------------------------------------------------------|

Chorus 2
e|----------------------------------------------------------------2x-|
B|-------------------------------------------------------------------|
G|-----------------------------8~---8-8---8--------------------------|
D|-8~---8~---8---8~---8-8--8---8~---8-8---8----5~---------3~---3~----|
A|-8~---8~---8---8~---8-8--8---6~---6-6---6----5~---------3~---3~----|
D|-8~---8~---8---8~---8-8--8-------------------5~---------3~---3~----|

Chorus 2 Pt. 2: "killin' me with..."
e|-------------------------------------------------------------------|
B|-------------------------------------------------------------------|
G|-------------------------------------------------------------------|
D|-8~---8~---8---8~---8-8--8---1~---1-1---1----5~---------3~---3~----|
A|-8~---8~---8---8~---8-8--8---1~---1-1---1----5~---------3~---3~----|
D|-8~---8~---8---8~---8-8--8---1~---1-1---1----5~---------3~---3~----|

[Bridge]

Guitar 1

Chords: Eb--, Gm, F 4x

Guitar 2 (electronic part transcribed to guitar)
e|----------------------------------10~--13~-----------------------------------------------------|
B|---------------------8-11~------------------11~-----------8-8~---------11---11---11---11-11-11-|
G|-12~------------7-10---------------------------------7-10--------------------------------------|
D|--------------8------------------------------------8-------------------------------------------|
A|-----------------------------------------------------------------------------------------------|
D|-----------------------------------------------------------------------------------------------|

[Final Chorus]
e|----------------------------------------------------------------2x-|
B|-------------------------------------------------------------------|
G|-----------------------------8~---8-8---8--------------------------|
D|-8~---8~---8---8~---8-8--8---8~---8-8---8----5~---------3~---3~----|
A|-8~---8~---8---8~---8-8--8---6~---6-6---6----5~---------3~---3~----|
D|-8~---8~---8---8~---8-8--8-------------------5~---------3~---3~----|

Final chorus Pt. 2: "killin' me with..."
e|-------------------------------------------------------------------|
B|-------------------------------------------------------------------|
G|-------------------------------------------------------------------|
D|-8~---8~---8---8~---8-8--8---1~---1-1---1----5~---------3~---3~----|
A|-8~---8~---8---8~---8-8--8---1~---1-1---1----5~---------3~---3~----|
D|-8~---8~---8---8~---8-8--8---1~---1-1---1----5~---------3~---3~----|

e|--------------------------------------------------------|
B|--------------------------------------------------------|
G|--------------------------------------------------------|
D|-8~---8~---8---8~---8-8--8---1~---1-1---1----5~---------|
A|-8~---8~---8---8~---8-8--8---1~---1-1---1----5~---------|
D|-8~---8~---8---8~---8-8--8---1~---1-1---1----5~---------|            
Submit corrections

↑ Back to top | Tablatures and chords for acoustic guitar and electric guitar, ukulele, drums are parodies/interpretations of the original songs. You may use it for private study, scholarship, research or language learning purposes only