» » »

All That Remains - This Darkened Heart Tabs

Artists:  A B C D E F G H I J K L M N O P Q R S T U V W X Y Z # 

This Darkened Heart Tabs

(ver. 3) Click to play this song!
All That Remains
 Rating:
4/5 (4 votes)

 This Darkened Heart lessons Tabs too difficult? Try these video lessons and learn fast
 
                                            All That Remains
                          This Darkened Heart                            


                                                                  Lohrbas
Guitar I, II

[ Notation ]
/ = Shift, otherwise known as Slide
h = Hammer-On

[ Beat ]
e = eigth note
q = quarter note
h = half note
w = whole note

[ Tab Explination ]

w||--e-e-e-e-e-e-q--q--q--q--q--q--q--q--q--h----h-----|| <- Beat Length

D||----------------------------------------------------||
A||----------------------------------------------------||
F||----------------------------------------------------||
C||----------------------------------------------------||
G||----------------------------------------------------||
C||--0-0-0-0-0-0-0--0--0--0--0--0--0--0--0--0----0-----||

x||--x---x---x---x--x--x--x--x--x--x-----x--x----x-----|| <- Palm Muting

[ All That Remains / This Darkened Heart / This Darkened Heart ]

Tempo: 130

Riff 1.A (Guitar I & II) 2x

w||---e-e-q--q--e-e-q---q---e-e-e-e-||
                                   
D||---------------------------------||
A||---------------------------------||
F||-------9--8------11--10------8-9-||
C||---------------------------------||
G||-------7--6------9---8-------6-7-||
C||---0-0-------0-0---------0-0-----||

x||---x-x-x-----x-x-x-------x-x-----||


Riff 1.B (Guitar I & II) 1x


w||--e-e-e-e-e-e-e-e-e-e-e-e-e-e-q--|--e-e-e-e-e-e-e-e-e-e-e-e-e-e-q---||
                                                       
D||---------------------------------|----------------------------------||
A||---------------------------------|----------------------------------||
F||---------------------------------|----------------------------------||
C||------------------------------2--|--------------------------2h4-0---||
G||------5---4---3---4---5---4---2--|------5---4---3---4---5---2h4-0---||
C||--0-0---0---0---0---0---0---0-2--|--0-0---0---0---0---0---0-2h4-0---||

x||--x-x---x---x---x---x---x---x----|--x-x---x---x---x---x---x---------||


Play Riff 1.A (Guitar I & II) 2x
Play Riff 1.B (Guitar I & II) 1x


Riff 2.A (Guitar I & II) 1x

w||---h-------- q triplet ----||
               /    |    \
D||---------------------------||
A||---------------------------||
F||---------------------------||
C||---2--------5----4----2----||
G||---2--------5----4----2----||
C||---2--------5----4----2----||


Riff 2.B (Guitar I & II) 1x

w||--h-------- q triplet ----|
              /    |    \
D||--------------------------|
A||--------------------------|
F||--------------------------|
C||--1--------2----4----6----|
G||--1--------2----4----6----|
C||--1--------2----4----6----|


Play Riff 2.A (Guitar I & II) 1x


Riff 2.C (Guitar I & II) 1x

w||--e-e-e-e-e-e-e-e-e-e-e-e-e-e-e-e--||
                                                                
D||-----------------------------------||
A||-----------------------------------||
F||-----------------------------------||
C||-----------------------------------||
G||--7-----6-----7---8-----7-----6h7--||
C||----0-0---0-0---0---0-0---0-0------||

x||----x-x---x-x---x---x-x---x-x------||


Play Riff 2.A (Guitar I & II) 1x
Play Riff 2.B (Guitar I & II) 1x
Play Riff 2.A (Guitar I & II) 1x
Play Riff 2.C (Guitar I & II) 1x

(Different parts in GuitarI & II)
(Guitar I is Riff 3.x.I)
(Guitar II is Riff 3.x.II)
(Both Riff 3 are played at the same time)

Riff 3.A.I (Guitar I) 3x

w||---e-e-e-e-e-e-e-e-e-e-e-e-e-e-e-e-||
      
D||-----------------------------------||
A||-----------------------------------||
F||-----------------------------------||
C||-----------------------------------||
G||---8-----7-----7h8-8-----7-----7h8-||
C||-----0-0---0-0-------0-0---0-0-----||

x||-----x-x---x-x-------x-x---x-x-----||


Riff 3.B.I (Guitar I) 1x

w||---e-e-e-e-e-e-e-e-e-e-e-e-e-e-e-e-||
      
D||------------------------------------||
A||------------------------------------||
F||------------------------------------||
C||------------------------------------||
G||--8-----7-----7h8-10---8---7---6----||
C||----0-0---0-0--------0---0---0---0--||

x||----x-x---x-x--------x---x---x---x--||                             


(Only for Guitar I)
Play 3.A.I (Guitar I) 3x
Play 3.B.I (Guitar 1) 1x


Riff 3.AB.II (Guitar II) 4x

w||--w--w--w--w--||

D||--------------||
A||--------------||
F||--------------||
C||--2--5--7--9--||
G||--2--5--7--9--||
C||--2--5--7--9--||


Riff 4.A (Guitar I & II) 3x

w||---e--e-e-e--e-e-e--e--e--e-e-e--e-e-e--e--||

D||-------------------------------------------||
A||-------------------------------------------||
F||---12-----11-----11/12-12-----11-----11/12-||
C||-------------------------------------------||
G||---10-----9------9/-10-10-----9------9/-10-||
C||------0-0----0-0----------0-0----0-0-------||

x||------x-x----x-x----------x-x----x-x-------||


Riff 4.B (Guitar I & II) 1x

w||--e--e-e-e--e-e-e--e--e--e-e--e-e--e-e--e--||
                                             
D||-------------------------------------------||
A||-------------------------------------------||
F||--12-----11-----11/12-14---12---11---10----||
C||-------------------------------------------||
G||--10-----9------9/-10-12---10---9----8-----||
C||-----0-0----0-0----------0----0----0----0--||

x||-----x-x----x-x----------x----x----x----x--||



Play Riff 4.A (Guitar I & II) 3x
Play Riff 4.B (Guitar I & II) 1x


Play Riff 1.A (Guitar I & II) 2x
Play Riff 1.B (Guitar I & II) 1x

Play Riff 1.A (Guitar I & II) 2x
Play Riff 1.B (Guitar I & II) 1x

Play Riff 2.A (Guitar I & II) 1x
Play Riff 2.B (Guitar I & II) 1x
Play Riff 2.A (Guitar I & II) 1x
Play Riff 2.C (Guitar I & II) 1x

Play Riff 2.A (Guitar I & II) 1x
Play Riff 2.B (Guitar I & II) 1x
Play Riff 2.A (Guitar I & II) 1x
Play Riff 2.C (Guitar I & II) 1x

Play 3.A.I (Guitar I) 3x, 3.AB.II (Guitar II)
Play 3.B.I (Guitar 1) 1x

Play 3.A.I (Guitar I) 3x, 3.AB.II (Guitar II)
Play 3.B.I (Guitar 1) 1x

Play Riff 4.A (Guitar I & II) 3x
Play Riff 4.B (Guitar I & II) 1x

Play Riff 4.A (Guitar I & II) 3x
Play Riff 4.B (Guitar I & II) 1x


TEMPO: 200


Riff 5.A (Guitar I & II) 1x

D||-------------------------------|
A||-------------------------------|
F||-------------------------------|
C||---0-0-0--0-0-0--0-0-0--0-0-0--|
G||---0-0-0--0-0-0--0-0-0--0-0-0--|
C||---0-0-0--0-0-0--0-0-0--0-0-0--|

x||---x-x-x--x-x-x--x-x-x--x-x-x--|


Riff 5.B (Guitar I & II) 1x

D||---------------------------|
A||---------------------------|
F||---------------------------|
C||------0-0-0--0-0-0--0-0-0--|
G||------0-0-0--0-0-0--0-0-0--|
C||------0-0-0--0-0-0--0-0-0--|

x||------x-x-x--x-x-x--x-x-x--|


Play Riff 5.A (Guitar I & II) 1x


Riff 5.C (Guitar I & II) 1x

w||---     h triplets         ---|
      /        |        \
D||------------------------------|
A||------------------------------|
F||------------------------------|
C||---6--------5--------4--------|
G||---6--------5--------4--------|
C||---6--------5--------4--------|


Play Riff 5.A (Guitar I & II) 1x
Play Riff 5.B (Guitar I & II) 1x
Play Riff 5.A (Guitar I & II) 1x


Riff 5.D (Guitar I & II) 1x

w||---     h triplets         ---|
      /        |        \
D||------------------------------|
A||------------------------------|
F||------------------------------|
C||---4--------5--------6--------|
G||---4--------5--------6--------|
C||---4--------5--------6--------|


Play Riff 5.A (Guitar I & II) 1x
Play Riff 5.B (Guitar I & II) 1x
Play Riff 5.A (Guitar I & II) 1x
Play Riff 5.C (Guitar I & II) 1x

Play Riff 5.A (Guitar I & II) 1x
Play Riff 5.B (Guitar I & II) 1x
Play Riff 5.A (Guitar I & II) 1x
Play Riff 5.D (Guitar I & II) 1x


Riff 6.I (Guitar I)

w||--www-------------------------|

D||------------------------------|
A||------------------------------|
F||------------------------------|
C||--2---------------------------|
G||--2---------------------------|
C||--2---------------------------|

)Guitar I Only)
Hold this chord for 12 counts...
Slide downward on the first string

Riff 6.II (Guitar II)

(Guitar II Only)
Meanwhile Guitar I is holding on
that chord...
Guitar II plays that same chord
many times in quarter note triplets
            
Submit corrections


        This Darkened Heart lessons Hard to play? Try these video lessons and learn fast This Darkened Heart lessons
        
↑ Back to top | Tablatures and chords for acoustic guitar and electric guitar, ukulele, drums are parodies/interpretations of the original songs. You may use it for private study, scholarship, research or language learning purposes only