» » »

All That Remains - The Waiting One Tabs

Artists:  A B C D E F G H I J K L M N O P Q R S T U V W X Y Z # 

The Waiting One Tabs

(ver. 2) Click to play this song!
All That Remains
 Rating:
3/5 (27 votes)

 The Waiting One lessons Tabs too difficult? Try these video lessons and learn fast
 
                B |---0-0-0-0-0-0---0-0-0-0-0-0------0-0-0-0-0-0---0-0-0-0-0-0----------------|
E |---5-5-5-5-5-5---5-5-5-5-5-5------7-7-7-7-7-7---7-7-7-7-7-7----------------|
A |---0-0-0-0-0-0---0-0-0-0-0-0------0-0-0-0-0-0---0-0-0-0-0-0----------------|
D |---5-5-5-5-5-5---5-5-5-5-5-5------7-7-7-7-7-7---7-7-7-7-7-7----------------|
F#|---7-7-7-7-7-7---7-7-7-7-7-7------5-5-5-5-5-5---5-5-5-5-5-5----------------|
B |---x-x-x-x-x-x---x-x-x-x-x-x------x-x-x-x-x-x---x-x-x-x-x-x----------------|

B |---0-0-0-0-0-0---0-0-0-0-0-0------0-0-0-0-0-0---0-0-0-0-0-0----------------|
E |---3-3-3-3-3-3---3-3-3-3-3-3------7-7-7-7-7-7---7-7-7-5-5-5----------------|
A |---0-0-0-0-0-0---0-0-0-0-0-0------0-0-0-0-0-0---0-0-0-0-0-0----------------|
D |---2-2-2-2-2-2---2-2-2-2-2-2------4-4-4-4-4-4---4-4-4-4-4-4----------------|
F#|---3-3-3-3-3-3---3-3-3-3-3-3------5-5-5-5-5-5---5-5-5-5-5-5----------------|
B |---x-x-x-x-x-x---x-x-x-x-x-x------x-x-x-x-x-x---x-x-x-x-x-x----------------|            
Submit corrections


        The Waiting One lessons Hard to play? Try these video lessons and learn fast The Waiting One lessons
        
↑ Back to top | Tablatures and chords for acoustic guitar and electric guitar, ukulele, drums are parodies/interpretations of the original songs. You may use it for private study, scholarship, research or language learning purposes only