» » »

All That Remains - The Last Time Tabs

Artists:  A B C D E F G H I J K L M N O P Q R S T U V W X Y Z # 

The Last Time Tabs

(ver. 3) Click to play this song!
All That Remains
 Rating:
4/5 (4 votes)

 The Last Time lessons Tabs too difficult? Try these video lessons and learn fast
 
                                      All that remains
                    --------------------
                     The last time solo

Just wanted it to be more clearly becouse the other tab contained the rythm part to!

tuning: (C# g# c# f# a# d#)




D#-------------------------------------------------|
A#-------------------------------------------------|
F#-------------------------12h14~~~~~~~~~~~~~~~~~--|
C#-------------------------------------------------|
G#-------------------------------------------------|
C#-------------------------------------------------|

D#-------------------------------------------------|
A#-------------------------------------------14~~~~|
F#-------------------------------------------------|
C#----------------15h17----14----15~~~~~~~~~-------|
G#-------------------------------------------------|
C#-------------------------------------------------|

D#-------------------------------------------------|
A#-~~~~~-16----------------------------------------|
F#-------------14~~~~~~~~~~~~~~~~~~~~~-------------|
C#-------------------------------------------------|
G#-------------------------------------------------|
C#-------------------------------------------------|

D#-------------------------16b~~~~~~~~~~~~~~~~~~~~-|
A#-18h19p18p16-18h19p18p16-------------------------|
F#-------------------------------------------------|
C#-------------------------------------------------|
G#-------------------------------------------------|
C#-------------------------------------------------|

D#-17h-19------------------------------------------|
A#---------18h-19--16h-18--14h-16------------------|
F#---------------------------------14h-17--12h-14--|
C#-------------------------------------------------|
G#-------------------------------------------------|
C#-------------------------------------------------|

D#-------------------------------------------------|
A#-------------------------------------------------|
F#-------------------------------------------------|
C#-14h-15--12h-14--10h-12--------------------------|
G#-------------------------12h-13--10h-12--8h--10--|
C#-------------------------------------------------|

D#-------------------------------------------------|
A#-------------------------------------------------|
F#-----------------------------14------------------|
C#-0---14p-0---10p-0---12p-0---------17--15--14----|
G#-------------------------------------------------|
C#-------------------------------------------------|

D#-------------------------------------------------|
A#---------------------17*~~~~~~~~~~~~~~~p-15p-14--|
F#-14--19p-0---17p-0-------------------------------|
C#-------------------------------------------------|
G#-------------------------------------------------|
C#-------------------------------------------------|

D#-------------------------------------------------|
A#-------------------------------------------------|
F#-------------------------------------------------|
C#-14~~~~~~~~~-15----15~~~~~~~~~~~~~~~~~~~~~-------|
G#-------------------------------------------------|
C#-------------------------------------------------|

D#-------------------------------------------------|
A#-------------------------------------------------|
F#-12~~~~~~~~~-14----12~~~~~~~~~-------------------|
C#-------------------------------15----14----15~~~~|
G#-------------------------------------------------|
C#-------------------------------------------------|

D#-------------------------------------------------|
A#-------------------------------------------------|
F#-------------------------------14p-12p-10--------|
C#-~~~~~-----15p-14p-12----------------------14p-10|
G#-------12--------------12h-13--------------------|
C#-------------------------------------------------|

D#-----------14p-13p-11----------17h19-------------|
A#-------------------------------------18h19-16h18-|
F#-------14--------------14h-15--------------------|
C#-h-12--------------------------------------------|
G#-------------------------------------------------|
C#-------------------------------------------------|

D#-------------17b~~~~~~~~~r~~~~~~~~~~-------------|
A#-16----------------------------------14b~~~~~~~~~|
F#-------------------------------------------------|
C#-------------------------------------------------|
G#-------------------------------------------------|
C#-------------------------------------------------|

D#-------------------------------------------------|
A#-r~~~~~~~~~~-------------13h15p13p12-------------|
F#-------------------------------------10h12p10p9--|
C#-------------------------------------------------|
G#-------------------------------------------------|
C#-------------------------------------------------|

D#-------------------------------------------------|
A#-------------------------------------------------|
F#-10~~~~~~~~~-12----9~~~~~~~~~~-10----7~~~~~~~~~~-|
C#-------------------------------------------------|
G#-------------------------------------------------|
C#-------------------------------------------------|

D#-------------------------------------------------|
A#-------------------------------------------------|
F#-------9-----10----9-----10~~~~~~~~~-9~~~~~~~~~~-|
C#-------------------------------------------------|
G#-------------------------------------------------|
C#-------------------------------------------------|


Tab Legend
h  -  hammer-on
p  -  pull-off
/  -  slide up
\  -  slide down
ps/-  pickslide up
ps\-  pickslide down
~  -  let ring
pm.-  palm mute
b  -  bend
r  -  return from bend
*  -  harmonic
x  -  dead note
^  -  Whammy bar
^\ -  Whammy bar (hold down)
            
Submit corrections


        The Last Time lessons Hard to play? Try these video lessons and learn fast The Last Time lessons
        
↑ Back to top | Tablatures and chords for acoustic guitar and electric guitar, ukulele, drums are parodies/interpretations of the original songs. You may use it for private study, scholarship, research or language learning purposes only