» » »

All That Remains - Regret Not Tabs

Artists:  A B C D E F G H I J K L M N O P Q R S T U V W X Y Z # 

Regret Not Tabs

(ver. 3) Click to play this song!
All That Remains
 Rating:
4/5 (4 votes)

 Regret Not lessons Tabs too difficult? Try these video lessons and learn fast
 
                ----------------------------------------------------------------------------
                          Regret Not - All That Remains
----------------------------------------------------------------------------

Tuning:DADGBE

Acoustic
E|-------------------------------------------------------------------------|
B|-------------------------------------------------------------------------|
G|3-3333-3333-3333-5555-2-2222-2222-2222-5555----Repeat-Through-Acoustic---|
D|3-3333-3333-3333-5555-2-2222-2222-2222-5555---------Part-Of-Song---------|
A|1-1111-1111-1111-3333-0-0000-0000-0000-3333------------------------------|
D|-------------------------------------------------------------------------|

First Riff - Repeat 3X
E|-------------------------------------------------------------------------|
B|-------------------------------------------------------------------------|
G|-------------------------------------------------------------------------|
D|-------------------------------------------------------------------------|
A|12h13-12-10-10h12-12h13-12-10-7-8-10-7-7h8p7-5---------------------------|
D|-------------------------------------------------------------------------|

E|-------------------------------------------------------------------------|
B|-------------------------------------------------------------------------|
G|-------------------------------------------------------------------------|
D|-------------------------------------------------------------------------|
A|12h13-12-10-10h12-12h13-12-10-7-8-10-10h12-------------------------------|
D|-------------------------------------------------------------------------|

Second Riff - Repeat 2X
E|-------------------------------------------------------------------------|
B|-------------------------------------------------------------------------|
G|-----------------7--------------7--9-9-12-9-7----------------------------|
D|--------------10---10-8---------7--9-9-12-9-7----------------------------|
A|------------7-----------12-10-7-5--7-7-10-7-5----------------------------|
D|7h8-7-5-7h8--------------------------------------------------------------|

E|-------------------------------------------------------------------------|
B|--------------------------------------------------------13---------------|
G|-----------------7/9-9/10-10-10/12-12/14-14/12-12----12------------------|
D|--------------10----------------------------------10-------12------------|
A|------------7------------------------------------------------------------|
D|7h8-7-5-7h8--------------------------------------------------------------|

Distorted Riff-Repeat 4X
E|-------------------------------------------------------------------------|
B|-------------------------------------------------------------------------|
G|7------7757------7753------3323------9999--------------------------------|
D|7------7757------7753------3323------9999--------------------------------|
A|5------5535------5531------1101------7777--------------------------------|
D|--0000------0000------0000------0000-------------------------------------|
p.m.....      ....      ....      ....

Repeat 4X
E|-------------------------------------------------------------------------|
B|-------------------------------------------------------------------------|
G|-------------------------------------------------------------------------|
D|-------------------------------------------------------------------------|
A|12-12-12-10-10-10-13-12-10-13-12-10-8-8-8-7-7-7-10-10-10-8-8-8-----------|
D|-------------------------------------------------------------------------|

Solo-a little sketchy
E|-------------------------------------------------------------------------|
B|-------------------------------------------------------------------------|
G|-------------------------------------------------------------------------|
D|-------------------21b22-20-19-19h20p19/17-17-17h19p17/15-15h17p15/14----|
A|15-17-19/20-19-20b-------------------------------------------------------|
D|-------------------------------------------------------------------------|

E|-------------------------------------------------------------------------|
B|------------------18b----------18-20b-18----18---------------------------|
G|------------17-21-----20-18-20-----------20----21b-19-21-21-19-21-21-21--|
D|---------19--------------------------------------------------------------|
A|17-19-20-----------------------------------------------------------------|
D|-------------------------------------------------------------------------|

E|-------------------------------------------------------------------------|
B|-------------18b-18b-------------------------18b-18b---------------------|
G|21-19b-17b-19b---------14b-16b-19b-19b-17b-19b---------14b-16b-19b-19b---|
D|-------------------------------------------------------------------------|
A|-------------------------------------------------------------------------|
D|-------------------------------------------------------------------------|

| /  slide up
| \  slide down
| h  hammer-on
| p  pull-off
| ~  vibrato
| +  harmonic
| x  Mute note

===============================================================================
            
Submit corrections


        Regret Not lessons Hard to play? Try these video lessons and learn fast Regret Not lessons
        
↑ Back to top | Tablatures and chords for acoustic guitar and electric guitar, ukulele, drums are parodies/interpretations of the original songs. You may use it for private study, scholarship, research or language learning purposes only