» » »

All That Remains - It Dwells On Me Tabs

Artists:  A B C D E F G H I J K L M N O P Q R S T U V W X Y Z # 

It Dwells On Me Tabs

(ver. 1) Click to play this song!
All That Remains
 Rating:
4/5 (4 votes)

 It Dwells On Me lessons Tabs too difficult? Try these video lessons and learn fast
 
                -------------------------------------------------------------------------------
                            All That Remains
                            "It Dwells on Me"
-------------------------------------------------------------------------------

I'm only a beginner but this is an amazing song and since no one has tabbed it, I gave 
a try. I thought I came up with something that works farely well actually. There's 
alot wrong but it's my first tab, what the hay. Did everything but the solo of course.

Also, sorry if there's another guitar playing during the chorus, I couldn't hear any 
guitar. If there is, feel free to correct me as with everything else.

Listen to the song for timing.

Tuning: 1 whole step down (DGCFAD)

Intro (also verse)                          x2
D|-------------------------------------------|
A|-------------------------------------------|
F|-------------------------------------------|
C|-------------------------------------------|
G|------7-------------------------7----9---7-|
D|------0--0--000000--000000---00---00-------|

intro pt.2
D|-------------------------------|
A|-------------------------------|
F|-------------------------------|
C|-------------------------------|
G|------7---7---7---8---8--8-----|
D|---88--88--88--88--88--88--88--|   (whole thing twice)


Fill (right before chorus)
D|------------------------------------|
A|------------------------------------|
F|------------------------------------|
C|------------------------------------|
G|--7---------------------------------|
D|--0--0--000000--000000---000000-----|


Chorus
D|-------------------------------------------------------------|
A|-------------------------------------------------------------|
F|-------------------------------------------------------------|
C|-----7---9--------------------------7---9--------------------|
G|-----5---7------2-------------------5---7---5h7---8---7---5~-|
D|-------0-----0--0------0234320--------0---------0---0---0----|

Chorus pt.2
D|---------------------------------------------------------|
A|---------------------------------------------------------|
F|---------------------------------------------------------|
C|------7---9----------------------5---3-------------------|
G|------5---7------2---------------------6---5-------------|
D|---00---0-----0--0------0234320--------------6---3-------|


Rythym (right before and behind solo)
D|---------------------------------------|
A|---------------------------------------|
F|---------------------------------------|
C|----------5----5--5--5--5--------5-/-7-|
G|----3333--3----3--3--3--3--3333--3-/-5-|
D|---------------------------------------|

Rythym pt.2
D|-------------------------------------------|------------------------------|
A|-------------------------------------------|------------------------------|
F|-------------------------------------------|------------------------------|
C|--------3---3-/-5-/-3--------3----5----7---|--------3-/-5---7-------------|
G|--------2---2-/-3-/-2--------2----3----5---|--------2-/-3---5-------------|
D|--0000------------------000----------------|--0000--------------0245420---|

that may be a little confusing the way I wrote it, just listen to the song and you'll 
it.


Bridge
D|-----------------------------------------------------------|
A|-----------------------------------------------------------|
F|-----------------------------------------------------------|
C|-----------------------------------------------------------|
G|-----------------------------------------------------------|
D|---00000---0--0--0---0-00000---00000----0--0--0---0245420--|


Bridge pt.2
D|--------------------------------------------------------------------|
A|--------------------------------------------------------------------|
F|--------------------------------------------------------------------|
C|---------------------------------------------5---3------------------|
G|---------------------------------------------------6---5------------|
D|---00000---0--0--0---0-00000---00000----0--0-------------6---3------|


Breakdown
D|----------------------------------------------------------|
A|----------------------------------------------------------|
F|----------------------------------------------------------|
C|----------------------------------------------------------|
G|--[8~]----------------------------------------------------|
D|------------00000----0000000-----0000000----0-0-0---------|

after a couple rounds of that there is a slide from about 12 to "nowhere", then the 
continues till the end of the song.


Listen to the song for the order. Please tell me about anything wrong so I can try and 

-Auren


| /  slide up
| \  slide down
| h  hammer-on
| p  pull-off
| ~  vibrato
| [x]  harmonic
| x  Mute note
===============================================================================
            
Submit corrections


        It Dwells On Me lessons Hard to play? Try these video lessons and learn fast It Dwells On Me lessons
        
↑ Back to top | Tablatures and chords for acoustic guitar and electric guitar, ukulele, drums are parodies/interpretations of the original songs. You may use it for private study, scholarship, research or language learning purposes only