» » »

All That Remains - Become The Catalyst Tabs

Artists:  A B C D E F G H I J K L M N O P Q R S T U V W X Y Z # 

Become The Catalyst Tabs

(ver. 1) Click to play this song!
All That Remains
 Rating:
3.1/5 (7 votes)

 Become The Catalyst lessons Tabs too difficult? Try these video lessons and learn fast
 
                (Intro)
-----------------------------------------------------------------------------
                             BECOME THE CATALYST - all that remains
-----------------------------------------------------------------------------

This is a more acurate version

Tuning:drop D
(INTRO)

e|---------------------------------------------------------------------------|
B|---------------------------------------------------------------------------|
G|---------------------------------------------------------------------------|
D|---------------------------------------------------------------------------|
A|-7---------7-6---------6-7---------6h7-5h6p5-6h7p6--5-6-7------------------|
D|-7-000-000-7-6-000-000-6-7-000-000-----------------------------------------|
     ... ...     ... ...     ... ...                  . . .
e|---------------------------------------------------------------------------|
B|---------------------------------------------------------------------------|
G|---------------------------------------------------------------------------|
D|---------------------------------------------------------------------------|
A|-6h7p6--------6h7p6-5h6p5---------5h6p5-6h7p6-------------6-5-----7-6-5----|
D|------000-000-------------000-000-------------000-000-000-----6-5-------6--|
        ... ...             ... ...             ... ... ... . . . . . . . .
e|---------------------------------------------------------------------------|
B|---------------------------------------------------------------------------|
G|---------------------------------------------------------------------------|
D|---------------------------------------------------------------------------|
A|6h7p6--------6h7p6-5h6p5--------5h6p5-6h7p6---------6h7-5h6p5-6h7p6--5-6-7-|
D|-----000-000------------000-000-------------000-000------------------------|
       ... ...            ... ...             ... ...                  . . .

e|---------------------------------------------------------------------------|
B|---------------------------------------------------------------------------|
G|---------------------------------------------------------------------------|
D|---------------------------------------------------------------------------|
A|-6h7p6--------6h7p6-5h6p5---------5h6p5-6h7p6-------------6-5-----7-6-5----|
D|------000-000-------------000-000-------------000-000-000-----6-5-------6--|
        ... ...             ... ...             ... ... ... . . . . . . . .

| /  slide up
| \  slide down
| h  hammer-on
| p  pull-off
| ~  vibrato
| +  harmonic
| .  Mute note
=============================================================================
            
Submit corrections


        Become The Catalyst lessons Hard to play? Try these video lessons and learn fast Become The Catalyst lessons
        
↑ Back to top | Tablatures and chords for acoustic guitar and electric guitar, ukulele, drums are parodies/interpretations of the original songs. You may use it for private study, scholarship, research or language learning purposes only