» » »

All That Remains - Air That I Breathe Bass

Artists:  A B C D E F G H I J K L M N O P Q R S T U V W X Y Z # 

Air That I Breathe Bass

(ver. 3) Click to play this song!
All That Remains
 Rating:
4.2/5 (5 votes)

 Air That I Breathe lessons Tabs too difficult? Try these video lessons and learn fast
 
                My first tab ever and I think its all right
All that remains: air that I breathe
Tuning:Drop D


intro 0:00-0:14  (x1)
G|---------------------------------------------------------------------------|
D|---------------------------------------------------------------------------|
A|---------------------------------------------------------------------------|
D|-9~~~~~~5~~~~7~~~9~~~~~~5~~~~~7~~~~~---------------------------------------|

0:14 - 0:38 (x2)
G|---------------------------------------------------------------------------|
D|---------------------------------------------------------------------------|
A|----------------------------------------9-7-5-7----------------------------|
D|-9999-9-7-5-5555-5555-99999-9-7-5-5-7-9------------------------------------|

G|---------------------------------------------------------------------------|
D|---------------------------------------------------------------------------|
A|-----------------------------9-7---9-7---9-7-------------------------------|
D|-9999-9-7-5-5555-5555-7-9999-----9-----9-----9-7---------------------------|


0:36 - 0:51 (x2)
G|---------------------------------------------------------------------------|
D|---------------------------------------------------------------------------|
A|----------------------9-7-5-7----------------------------------------------|
D|-9-9-7-9-7-9-0-0-0-----------------3-0-0-2-0-0-3-0-0-2-----5-7-------------|

0:51-0:57 (x1)
G|--------------------------------------|
D|--------------------------------------|
A|--------------------------------------|
D|-9~~~~~~5~~~~7~~~9~~~~~~5~~~~~7~~~~~--|

0:57-1:09  (x2)
G|--------------------------------------|
D|--------------------------------------|
A|----------------------9-7-5~-9-7-5-7--|
D|-9~~~9-9-7-7~~~7-7--------------------|


1:09-1:33 (x4)
G|---------------------------------------------------------------------------|
D|---------------------------------------------------------------------------|
A|----------------------9-7-5-7----------------------------------------------|
D|-9-9-7-9-7-9-0-0-0-----------------3-0-0-2-0-0-3-0-0-2-----5-7-------------|

Then guitars by them self

Starting back up at 1:39-2:02 (x4)
G|--------------------------------------|
D|--------------------------------------|
A|----------------------9-7-5~-9-7-5-7--|
D|-9~~~9-9-7-7~~~7-7--------------------|

2:02-2:15 (x2)
G|-----------------------------------------------------------------------|
D|-----------------------------------------------------------------------|
A|-2~~~~~~----------------0~~~~~~----------------------------------------|
D|---------------------5~~~~~-----------------------------------------2--|

2:16-2-29 (x2)
G|------------4----------6----------7----------------|
D|--------0-4-------0-4--------0-4-----5-4-2---------|
A|--2-2-2--------2----------2-----------------5-4-2--|
D|---------------------------------------------------|


2:30- 2:42 (x2)
G|-----------------------------------------------------------------------|
D|-----------------------------------------------------------------------|
A|-2~~~~~~----------------0~~~~~~----------------------------------------|
D|---------------------5~~~~~-----------------------------------------2--|

2:43-2:55 (x2)
G|---------------------------------------------------------------------------|
D|---------------------------------------------------------------------------|
A|-22-2-22--------------------0-0-00-----------------------------------------|
D|-----------------------55-55-5-5----------------------------------2-2-222--|

2:56- 3:07 (x1)
G|---------------------------------------------------------------------------|
D|---------------------------------------------------------------------------|
A|----------------------------------------9-7-5-7----------------------------|
D|-9999-9-7-5-5555-5555-99999-9-7-5-5-7-9------------------------------------|

G|--------------------------------------------------|
D|--------------------------------------------------|
A|-----------------------------9-7---9-7---9-7------|
D|-9999-9-7-5-5555-5555-7-9999-----9-----9-----9-7--|

3:08-end  (x9)
G|---------------------------------------------------------------------------|
D|---------------------------------------------------------------------------|
A|---------------------------------------------------------------------------|
D|-11-11-9-11-9-11-7-7-7--7-7-7----------------------------------------------|

Except on last time through do this

G|---------------------------------------------------------------------------|
D|---------------------------------------------------------------------------|
A|---------------------------------------------------------------------------|
D|-11-11-9-11-9-11-----------------------------------------------------------|
            
Submit corrections


        Air That I Breathe lessons Hard to play? Try these video lessons and learn fast Air That I Breathe lessons
        
↑ Back to top | Tablatures and chords for acoustic guitar and electric guitar, ukulele, drums are parodies/interpretations of the original songs. You may use it for private study, scholarship, research or language learning purposes only