Home » A » All Saints »

All Saints - Pure Shores Tabs

Artists:  A B C D E F G H I J K L M N O P Q R S T U V W X Y Z # 

Pure Shores Tabs

(ver. 2) Click to play this song!
All Saints
Th e best song ever produced......Ever.

-----------------|-----------------|-----------------|----------------|-------
---4-6-7-6-4-----|---4-6-7-6-4-----|---4-6-7-6-4-----|---4-6-7-6-4----|-------
-6-----------6-4-|-6-----------6-4-|-6-----------6-4-|-6-----------6-4|-------
-----------------|-----------------|-----------------|----------------|-------
-----------------|-----------------|-----------------|----------------|-------
-----------------|-----------------|-----------------|----------------|-------
 Guitar 1    Riff1                                                            

-----------------|-----------------|-----------------|----------------|-------
-----------------|-----------------|-----------------|----------------|-------
-----------------|-----------------|-----------------|----------------|-------
-----6-----------|-----8-----------|-----16----------|------15--------|-------
-----------------|-----------------|-----------------|----------------|-------
-----------------|-----------------|-----------------|----------------|-------
 Guitar 2  (with delay)    Riff2                                              

-----------------|-----------------|-----------------|-----------------|------
-----------------|-----------------|-----------------|-----------------|------
-----------------|-----------------|-----------------|-----------------|------
-----------------|-----------------|-----------------|-----------------|------
-4---------------|-6---------------|-2---------------|-----------------|------
-----------------|-----------------|-----------------|-2---------------|------
 Then  Bass1   w/Riff1 and Riff2      Played 4 times                          

-----------------|-----------------|-----------------|-------------------/----
-----------------|-----------------|-----------------|----------/-------------
-----------------|-----------------|-----------------|---/--------------------
-----------------|-----------------|--------------/--|------------------------
-----------------|-----------------|----------/------|------------------------
-----------------|-----------------|-----------------|------------------------
 On the fourth time                           Woosh noise                     

-----------------|-----------------|-----------------|-----------------|------
-----------------|-----------------|-----------------|-----------------|------
-----------------|-----------------|-----------------|-----------------|------
-----------------|-----------------|-----------------|-----------------|------
-4-4-4-4-4-4-4-4-|-6-6-6-6-6-6-6-6-|-2-2-2-2-2-2-2-2-|-----------------|------
-----------------|-----------------|-----------------|-2-2-2-2-2-2-2-2-|------
 Then Bass2   w/Riff1 and Riff2                                               

-----------21-21-21-21-21-------/-/-/-/-/-/-/-/-/-----------|------
------------21-21-21-21-21------/-/-/-/-/-/-/-/-/-----------|------
-6-6-6-6-6-------------------------------------------------------------|------
 Effects w/Bass2 and Riff2          Played Twice (2nd time replace w/Wooosh   

--------6---------------------------------------------------------------------
--------9---------------------------------------------------------------------
--------8---------------------------------------------------------------------
--------6---------------------------------------------------------------------
  key change bit, just play around this chord   back to 1st bit and fade.     
            
Submit corrections

↑ Back to top | Tablatures and chords for acoustic guitar and electric guitar, ukulele, drums are parodies/interpretations of the original songs. You may use it for private study, scholarship, research or language learning purposes only