» » »

All Saints - Pure Shores Tabs

Artists:  A B C D E F G H I J K L M N O P Q R S T U V W X Y Z # 

Pure Shores Tabs

(ver. 1) Click to play this song!
All Saints
 Rating:
4/5 (4 votes)

 Pure Shores lessons Tabs too difficult? Try these video lessons and learn fast
 
                

Standard Tuning
EADGBe
Clean Electric Guitar
pickup switch: 3/middle 
1stTone: 6 
2ndTone: 1

This riff is repeated throughout the whole song

Riff 1
e|-------------------|
B|------6-7-6--------|
G|--6-8-------8-6----|
D|----------------8--|
A|-------------------|
E|-------------------|

And that little other riff you can hear throughout the song is
(try and strike the first note and get softer and softer. I have marked 
which note to strike.)
(Also try using an effect to get it to sound lke the CD.)

Riff 2
e|---------------------------------------------------|
B|---------------------------------------------------|
G|--(6)-6-6-6---(8)-8-8-8---(4)-4-4-4---(6)-6-6-6----|
D|---------------------------------------------------|
A|---------------------------------------------------|
E|---------------------------------------------------|

The second Guitar strums this
(sounds better without a pick and struming lightly)

Riff3
e|--4---x8----2---x8---7---x8---2---x8--|
B|--6---------2--------7--------2-------|
G|--6---------3--------8--------3-------|
D|--6---------4--------9--------4-------|
A|--4---------4--------9--------4-------|
E|--4---------4--------7--------2-------|


Intro:
Riff 1 & Riff 2  x4

(In comes Riff 3)

Riff 1, 2 & 3  x4

Verse:
(.."I've crossed dessert for miles, swam...")
Riff 1, 2 & 3  x16

Chorus:
(Riff 3 uses wah wah pedal)
Riff 1, 2 & 3  x8

Bridge?:
Riff 1, 2 & 3 x 8 (normal)

Verse:
(.."never been here before..")
Riff 1, 2 & 3 x 16

Chorus:
(riff 3 a bit of distortion)
Riff 1, 2 & 3  x8

Bridge
Riff 1, 2 & 3 x 8 (normal)

Verse
Riff 3 only with wah wah

(.."i'm coming i'm drowing..")
Riff 1,2 &3 (riff 3 distortion)

Chorus:
(riff 3 a bit of distortion)
Riff 1, 2 & 3  x8

Enjoy

cheers
            
Submit corrections


        Pure Shores lessons Hard to play? Try these video lessons and learn fast Pure Shores lessons
        
↑ Back to top | Tablatures and chords for acoustic guitar and electric guitar, ukulele, drums are parodies/interpretations of the original songs. You may use it for private study, scholarship, research or language learning purposes only