» » »

Allman Brothers - Soulshine Tabs

Artists:  A B C D E F G H I J K L M N O P Q R S T U V W X Y Z # 

Soulshine Tabs

(ver. 3) Click to play this song!
Allman Brothers
 Rating:
4/5 (4 votes)
    Soulshine lessons Tabs too difficult? Try these video lessons and learn fast
                b= bend
~= vibrato
/= slide up
\= slide down
h= hammer-on
p= pull-off



Alright, every one posts lyrics of this song and its annoying.
So i've decided to make my own. Please rate. This is my first tab so go easy.


Opening solo:

|---------------------------------------------------------------------------|
|-------------------------6----------------------------------------------3~/|
|------3-3--5b-5b------8------7--5-5~~--------3-3--3/5--5\3-3-3--3----------|
|--3/5-----------------------------------3/5-----------------------5--------|
|--------------------------------------------------------------------4/5----|
|---------------------------------------------------------------------------|


|----------------------------13---------------------------------------------|
|------11--13b-13b-------16------15--13--13~~-------11-11--11h13------------|
|--12---------------------x-<--(optional)-------/12-------------------------|
|-------------------------x-<--(optional)-----------------------------------|
|-------------------------x-<--(optional)-----------------------------------|
|---------------------------------------------------------------------------|
		*the muting is optional but i think he does it

|---16b---13h16p13----------------------------------------------------------|
|-------------------14--11--11~~~-------------------------------------------|
|---------------------------------------------------------------------------|
|---------------------------------------------------------------------------|
|---------------------------------------------------------------------------|
|---------------------------------------------------------------------------|


the lyrics then kick in with the chord progression A#-F-D#-A# and a few G#.
If you do not know what these chords look like use th chord-finder on 
Cyberfret.com. 

I'm working on the other solos so hang tight.
            
Submit corrections

↑ Back to top | Tablatures and chords for acoustic guitar and electric guitar, ukulele, drums are parodies/interpretations of the original songs. You may use it for private study, scholarship, research or language learning purposes only