» » »

Allison - Fragil Tabs

Artists:  A B C D E F G H I J K L M N O P Q R S T U V W X Y Z # 

Fragil Tabs

(ver. 1) Click to play this song!
Allison
 Rating:
4/5 (10 votes)

 Fragil lessons Tabs too difficult? Try these video lessons and learn fast
 
                Frágil

Esta es una canción de un trío mexicano q esta en los primeros lugares de 
Popularidad y tocan bastante bien.

Intro: Guitarra 1
E/--------------------------------------------------------/
B/--------------------------------------------------------/
G/--------------------------------------------------------/
D/-0-0-0-4-0-0---------4-0-0-------4-0-0-------7-5-0-4-0--/
A/---------------0-0-0--------------------0-0-0-----------/
E/----------------------------3-3-3-----------------------/

E/------------------------------------------------------/
B/------------------------------------------------------/
G/------------------------------------------------------/
D/-0-0-0-4-0-0---------4-0-0-------4-0-0----------------/
A/---------------0-0-0--------------------0-0-----------/
E/----------------------------3-3-3---------------------/

Guitarra 2 
E/------------------------------------------------------/
B/------------------------------------------------------/
G/------------------------------------------------------/
D/-7---7---7---7---7---7---7---7---7---7---7------------/
A/---5---5---5---5---5---5---5---5---5---5--------------/
E/------------------------------------------------------/

E/------------------------------------------------------/
B/------------------------------------------------------/
G/------------------------------------------------------/
D/-7---7---7---7---7---7---7---7---7---7---7------------/
A/---5---5---5---5---5---5---5---5---5---5--------------/
E/------------------------------------------------------/

Guitarra 1
E/---------------/
B/---------------/
G/---------------/
D/-9------9--7---/
A/-9------9--7---/
E/-7------7--5---/

Guitarra 1 sigue el golpeo de la Guitarra 2
E/-----------------------------------------------------/
B/-----------------------------------------------------/
G/--77777777-------------------------------------------/
D/--77777777--77777777--55555555--9999--7777-----------/
A/--55555555--77777777--55555555--9999--7777-----------/
E/------------55555555--33333333--7777--5555-----------/

E/--------------------------------------------------/
B/--------------------------------------------------/
G/--77777777----------------------------------------/
D/--77777777--77777777--55555555--9--9-7------------/
A/--55555555--77777777--55555555--9--9-7-deja sonar-/
E/------------55555555--33333333--7--7-5------------/

Guitarra 1 sigue el golpeo de la Guitarra 2

Rápido 
Guitarra 2
E/--------------------------------------------------------------------------/
B/--------------------------------------------------------------------------/
G/-7-6-7-6-7-6-7--9-7-6-7-6-7-6-7--9-7-6-7-6-7-6-7--9—12-11-9—-12--11-9-7-6-/
D/-xxxxxxxxxxxxxxxxxxxxxxxxxxxxxxxxxxxxxxxxxxxxxxxxxxxxxxxxxxxxxxxxxxxxxxxx-/
A/-5-4-5-4-5-4-5—-7-5-4-5-4-5-4-5--7—5-4-5-4-5-4-5—-7-10-9—-7—-12—-10-9-7-6-/
E/--------------------------------------------------------------------------/

E/------------------------------------------------------------------/
B/------------------------------------------------------------------/
G/-7-6-7—6-7-6-7--9--7-6-7-6-7-6-7--9—-7-6-7-6-7-6-7-9---9--9-7-----/
D/-xxxxxxxxxxxxxxxxxxxxxxxxxxxxxxxxxxxxxxxxxxxxxxxxxxxxxxxxxxxx-----/
A/-5-4-5-4-5-4-5—-7—-5-4-5-4-5-4-5--7—-5-4-5-4-5-4-5—7---7--7-5-----/
E/------------------------------------------------------------------/

Solo bajo y batería 

Guitarra 1 y 2
E/--------------------------------------------/
B/--------------------------------------------/
G/--------------------------------------------/
D/—-5---5-5-5--7---7--------------------------/
A/—-5---5-5-5--7---7--------------------------/
E/—-3---3-3-3--5---5--------------------------/

Guitarra  1 y 2
E/-----------------------------------------------------/
B/-----------------------------------------------------/
G/--77777777-------------------------------------------/
D/--77777777--77777777--55555555--9999--7777-----------/
A/--55555555--77777777--55555555--9999--7777-----------/
E/------------55555555--33333333--7777--5555-----------/

e/-----------------------------------------------------/
B/-----------------------------------------------------/
G/--77777777-------------------------------------------/
D/--77777777--77777777--55555555--9999--7777-----------/
A/--55555555--77777777--55555555--9999--7777-----------/
E/------------55555555--33333333--7777--5555-----------/

Rápido 
Guitarra 2
E/--------------------------------------------------------------------------/
B/--------------------------------------------------------------------------/
G/-7-6-7-6-7-6-7--9-7-6-7-6-7-6-7--9-7-6-7-6-7-6-7--9—12-11-9—-12--11-9-7-6-/
D/-xxxxxxxxxxxxxxxxxxxxxxxxxxxxxxxxxxxxxxxxxxxxxxxxxxxxxxxxxxxxxxxxxxxxxxxx-/
A/-5-4-5-4-5-4-5—-7-5-4-5-4-5-4-5--7—5-4-5-4-5-4-5—-7-10-9—-7—-12—-10-9-7-6-/
E/--------------------------------------------------------------------------/

E/------------------------------------------------------------------/
B/------------------------------------------------------------------/
G/-7-6-7—6-7-6-7--9--7-6-7-6-7-6-7--9—-7-6-7-6-7-6-7-9---9--9-7-----/
D/-xxxxxxxxxxxxxxxxxxxxxxxxxxxxxxxxxxxxxxxxxxxxxxxxxxxxxxxxxxxx-----/
A/-5-4-5-4-5-4-5—-7—-5-4-5-4-5-4-5--7—-5-4-5-4-5-4-5—7---7--7-5-----/
E/------------------------------------------------------------------/

Guitarra 1 sigue el golpeo de la Guitarra 2
E/-----------------------------------------------------/
B/-----------------------------------------------------/
G/--77777777-------------------------------------------/
D/--77777777--77777777--55555555--9999--7777-----------/
A/--55555555--77777777--55555555--9999--7777-----------/
E/------------55555555--33333333--7777--5555-----------/


E/--------------------------------------------------/
B/--------------------------------------------------/
G/--77777777----------------------------------------/
D/--77777777--77777777--55555555--9--9-7------------/
A/--55555555--77777777--55555555--9--9-7-deja sonar-/
E/------------55555555--33333333--7--7-5------------/





Guitarra 1
E/----------------------------------/
B/----------------------------------/
G/--7-7-----------------------------/
D/--7-7-7-7-5-5-9-9-7-7-------------/
A/--5-5-7-7-5-5-9-9-7-7-------------/ 
E/------5-5-3-3-7-7-5-7-------------/

Guitarra 1 y 2
E/--------------------------------------------/
B/--------------------------------------------/
G/--------------------------------------------/
D/—-5---5-5-5--7---7--------------------------/
A/—-5---5-5-5--7---7--------------------------/
E/—-3---3-3-3--5---5--------------------------/

Guitarra  1 y 2
E/-----------------------------------------------------/
B/-----------------------------------------------------/
G/--77777777-------------------------------------------/
D/--77777777--77777777--55555555--9999--7777-----------/
A/--55555555--77777777--55555555--9999--7777-----------/
E/------------55555555--33333333--7777--5555-----------/

e/-----------------------------------------------------/
B/-----------------------------------------------------/
G/--77777777-------------------------------------------/
D/--77777777--77777777--55555555--9999--7777-----------/
A/--55555555--77777777--55555555--9999--7777-----------/
E/------------55555555--33333333--7777--5555-----------/

Guitarra 1
E/-------------------------------------------/
B/-------------------------------------------/
G/--7-7-7------------------------------------/
D/--7-7-7-7-7-7-5-5-5-9-9-9-7-7-7------------/
A/--5-5-5-7-7-7-5-5-5-9-9-9-7-7-7------------/ (Al ritmo del bridge)
E/--------5-5-7-3-3-5-7-7-7-5-7-5------------/

Bridge 
Guitarra 2 Muy lento
E/-------------------------------------------------/
B/-------------------------------------------------/
G/-7/--7/99-9/44-4/1212-11-7--7/99-9/111-12-11-7---/
D/-xxxxxxxxxxxxxxxxxxxxxxxxxxxxxxxxxxxxxxxxxxxxx---/
A/-5/--5/77-7/22-2/1010—-9-5--9/77-7/9-9-10--9-5---/ x2
E/-------------------------------------------------/

Guitarra 1
E/--------------------------------------------------------/
B/--------------------------------------------------------/
G/--------------------------------------------------------/
D/-0-0-0-4-0-0---------4-0-0-------4-0-0-------7-5-0-4-0--/
A/---------------0-0-0--------------------0-0-0-----------/
E/----------------------------3-3-3-----------------------/

Guitarra 1 y 2
E/--------------------------------------------/
B/--------------------------------------------/
G/--------------------------------------------/
D/—-5---5-5-5--7---7--------------------------/
A/—-5---5-5-5--7---7--------------------------/
E/—-3---3-3-3--5---5--------------------------/





Guitarra  1 y 2
E/-----------------------------------------------------/
B/-----------------------------------------------------/
G/--77777777-------------------------------------------/
D/--77777777--77777777--55555555--9999--7777-----------/
A/--55555555--77777777--55555555--9999--7777-----------/
E/------------55555555--33333333--7777--5555-----------/

Guitarra 1 sigue el golpeo de la Guitarra 2
E/-----------------------------------------------------/
B/-----------------------------------------------------/
G/--77777777-------------------------------------------/
D/--77777777--77777777--55555555--9999--7777-----------/
A/--55555555--77777777--55555555--9999--7777-----------/
E/------------55555555--33333333--7777--5555-----------/

e/-----------------------------------------------/
B/-----------------------------------------------/
G/--77777777-------------------------------------/
D/--77777777--77777777--55555555---9----7----5---/
A/--55555555--77777777--55555555---9----7----5---/
E/------------55555555--33333333---7----5----3---/

Rápido 
Guitarra 2
E/--------------------------------------------------------------------------/
B/--------------------------------------------------------------------------/
G/-7-6-7-6-7-6-7--9-7-6-7-6-7-6-7--9-7-6-7-6-7-6-7--9—12-11-9—-12--11-9-7-6-/
D/-xxxxxxxxxxxxxxxxxxxxxxxxxxxxxxxxxxxxxxxxxxxxxxxxxxxxxxxxxxxxxxxxxxxxxxxx-/
A/-5-4-5-4-5-4-5—-7-5-4-5-4-5-4-5--7—5-4-5-4-5-4-5—-7-10-9—-7—-12—-10-9-7-6-/
E/--------------------------------------------------------------------------/

E/--------------------------------------------------------------------------/
B/--------------------------------------------------------------------------/
G/-7-6-7—6-7-6-7--9--7-6-7-6-7-6-7--9—-7-6-7-6-7-6-7--9---12---11---7-------/
D/-xxxxxxxxxxxxxxxxxxxxxxxxxxxxxxxxxxxxxxxxxxxxxxxxxxxxxxxxxxxxxxxxxx-------/
A/-5-4-5-4-5-4-5—-7—-5-4-5-4-5-4-5--7—-5-4-5-4-5-4-5—-7---10----9---5-------/
E/--------------------------------------------------------------------------/
            
Submit corrections


        Fragil lessons Hard to play? Try these video lessons and learn fast Fragil lessons
        
↑ Back to top | Tablatures and chords for acoustic guitar and electric guitar, ukulele, drums are parodies/interpretations of the original songs. You may use it for private study, scholarship, research or language learning purposes only