» » »

Allison - Aqui Tabs

Artists:  A B C D E F G H I J K L M N O P Q R S T U V W X Y Z # 

Aqui Tabs

(ver. 2) Click to play this song!
Allison
 Rating:
4/5 (5 votes)

 Aqui lessons Tabs too difficult? Try these video lessons and learn fast
 
                AQUÍ – Allison
QUe ONDA A TODA LA BANDA GEOVANI,CHRISTIAN,Y PUES LA LIRA YO AQUÍ ESTA
ESTA ESTE TAB QUE SAQUE Y ES UN POCO COSTOSO LE HICE LOS ARREGLOS AL
DE UN CUATE POR QUE ESTABA AFINADA EN BEMOL:

Guitarra 1:sin distor
e---------------13--------13----------|
B-------------------------------------|
G--------14h15------14h15-----14h15---|
D-------------------------------------|     x2
A-------------------------------------|
E-------------------------------------|

En la guitarra2:
después se oye algo así

A-----------8/1------------


Guitarra 1:con distor leve
e----------------13--------13-------------|
B----------10h11-----10h11------10h11-----|
G-----------------------------------------|
D-----------------------------------------|     x6
A-----------------------------------------|
E-----------------------------------------|

Y la ultima vez hace esto
e----------------13---------13-------11-10------10------|
B---------10h11------10h11------------------11----------|
G-------------------------------------------------------|
D-------------------------------------------------------|
A-------------------------------------------------------|
E-------------------------------------------------------|

Y la guitarra 2:

LAS PRIMERS DOS VECES HACE ESTO , LAS SIGUIENTES DOS CAMBIA AL DE ABAJO Y ASI HASTA LA ULTIMA
e-------------------------------------|
B-------------------------------------|
G-------3333333333333333--------------|
D-------3333333333333333--------------|
A-------1111111111111111--------------|
E-------------------------------------|


e-------------------------------------|
B-------------------------------------|
G-------------------------------------|
D-------3333333333333333--------------|
A------ 3333333333333333--------------|
E-------1111111111111111--------------|


e------------------------------------|
B------------------------------------|
G------------------------------------|
D-------5555555555555555-------------|
A-------5555555555555555-------------|
E-------3333333333333333-------------|


e-------------------------------------|
B-------------------------------------|
G-------------------------------------|
D-------3333333333333333--------------|
A------ 3333333333333333--------------|
E-------1111111111111111--------------|


e--------------------------------------|
B--------------------------------------|
G--------------------------------------|
D-------5555555555555555---------------|
A-------5555555555555555---------------|
E-------3333333333333333---------------|


Estas aquí parada si decirme que estas por mi:
Entra la guitarra 1 con suabIdad:
e|-------------------------------------------------|
B|-------------------------------------------------|
G|---3--3-3---3--3-3---3--3-3---3--3-3-------------|
D|--3-3--3---3-3--3---3-3--3---3-3--3-----3--3-3---|
A|-1---1----1---1------------------------3-3--3----|
E|-------------------1---1----1---1-----1---1------|

e------------------------|
B------------------------|
G-----3-2-3-2-----2------|
D----------------3-------| x1
A------------------------|
E------------------------|


guitarra 2
e|---------------------------------------------------|
B|---------------------------------------------------|
G|---3~-3~---------333333333333333-5555555555555555--|
D|--3-------3~-3~--333333333333333-5555555555555555--|
 A|-1-------3-------111111111111111-3333333333333333-|
 E|--------------------------------------------------|
                ********************************PM

CORO :
  guitarra 1 y 2
E|----------------------------------------------------------------------|
B|----------------------------------------------------------------------|
G|----------------------------------------------------------------------|
D|-8888888888888888111111111111111155555555555555553333333333333333-1-3-|
A|-8888888888888888111111111111111155555555555555553333333333333333-1-3-|
E|-6666666666666666xxxxxxxxxxxxxxxx33333333333333331111111111111111-x-1-|

post-coro
   guitarra 1
e|------------------------|
B|------------------------|
G|---3---3-2~-3-3-3-2-----|
D|-----3--------------3---|
A|----------------------5-|
E|------------------------|x2
  guitarra 2
E|----------------------------------|
B|----------------------------------|
G|-33333333333333335555555555555555-
D|-33333333333333335555555555555555-
A|-11111111111111113333333333333333-
E|----------------------------------
verso2
   guitarra 1
E|----------------------------------------------------|
B|----------------------------------------------------|
G|-3>-3>-------3>-------------------------------------|
D|-3>-3>-3>-3>-3>-------------------------------------|
A|-1>-1>-3>-3>-1>-111111111111111111-3333333333333333-|
E|----1>-x>-1>----------------------------------------|
  **************************************************PM


guitarra 2
e|--------------------------------------------------|
B|--------------------------------------------------|
G|-3>--------------333333333333333-5555555555555555-|
D|-3>--------------333333333333333-5555555555555555-|
A|-1>--------------111111111111111-3333333333333333-|
E|--------------------------------------------------|
  *************************************************PM

coro
   guitarra 1 y 2
e|------------------------------------------------------------------------------|
B|------------------------------------------------------------------------------|
G|------------------------------------------------------------------------------|
D|-8888888888888888111111111111111155555555555555553333333333333333-11-11-33-33-|
A|-8888888888888888111111111111111155555555555555553333333333333333-11-11-33-33-|
E|-6666666666666666XXXXXXXXXXXXXXXX33333333333333331111111111111111-XX-XX-11-11-|

intermedio
   guitarra 1 y 2
E|---------------------------------------------|
B|---------------------------------------------|
G|---------------------------------------------|
D|-1111-88-11-99-22-22-33-33--1111-88-11-88-1~-|
A|-1111-88-11-99-22-22-33-33--1111-88-11-88-1~-|
E|-XXXX-66-XX-66-XX-XX-11-11--XXXX-66-XX-66-X~-|
   ****    **                 ****    **PM


coro2
   guitarra 1 y 2
E|-----------------------------------------------------------------------|
B|-----------------------------------------------------------------------|
G|-555555555555555-----------------------------------------------------5-|
D|-555555555555555-333333333333333-777777777777777-55555555555555—3—5--5-|
A|-333333333333333-333333333333333-777777777777777-555555555555555-3-5-3-|
E|-----------------111111111111111-555555555555555-333333333333333-1-3---|

e-----------7-8------7-8------8-------|
B-------------------------------------|       HASTA QUE ACABE
G----------------10-------10----------|
D-------------------------------------|
A-------------------------------------|
E-------------------------------------|
            
Submit corrections


        Aqui lessons Hard to play? Try these video lessons and learn fast Aqui lessons
        
↑ Back to top | Tablatures and chords for acoustic guitar and electric guitar, ukulele, drums are parodies/interpretations of the original songs. You may use it for private study, scholarship, research or language learning purposes only