» » »

Alligatoah - Trauerfeier Tabs

Artists:  A B C D E F G H I J K L M N O P Q R S T U V W X Y Z # 

Trauerfeier Tabs

(ver. 2) Click to play this song!
Alligatoah
 Rating:
4/5 (4 votes)

 Trauerfeier lessons Tabs too difficult? Try these video lessons and learn fast
 
                Intro Part 1 (0:03 / 1x)
e|----------------------------------------------------------------------------|
B|-----9----------------------------------------------------------------------|
G|--------8h9-----9p8----------6--6--6--6--6--6--6--6\8--8--8--8--8--8--8--8--|
D|-----------------------9----------------------------------------------------|
A|--7------------7------------------------------------------------------------|
E|---------------------------5--5--5--5--5--5--5--5\7--7--7--7--7--7--7--7----|

Intro Part 2 (0:09 / 1x)

e|-----------------------------9~---11~---|
B|-----9----------------------------------|
G|--------8h9-----9p8----------9~---11~---|
D|----------------------9-----------------|   
A|--7------------7------------------------|
E|----------------------------------------|

Verse (0:15 / 6x)

e|----------------------------------------------------------------------------|
B|-----9----------------------------------------------------------------------|
G|--------8h9-----9p8----------6--6--6--6--6--6--6--6\8--8--8--8--8--8--8--8--|
D|-----------------------9----------------------------------------------------|
A|--7------------7------------------------------------------------------------|
E|---------------------------5--5--5--5--5--5--5--5\7--7--7--7--7--7--7--7----|

Pre-Chorus (0:51 / 1x )

e|----------------------------9~--------9~--------------------------------------|
B|------------------------------------------------------------------------------|
G|-------6~--------9~------------------------6~------------9~-----8~-------11~--|
D|------------------------------------------------------------------------------|
A|-----------------------0~------7~---------------------------------------------|
E|--5~------9~--------------------------5~----------9~------------7~-------11~--|

Chorus Part 1(1:06 / 4x)
e|----------------------------------------------------------------------------|
B|-----9----------------------------------------------------------------------|
G|--------8h9-----9p8----------6--6--6--6--6--6--6--6\8--8--8--8--8--8--8--8--|
D|-----------------------9----------------------------------------------------|
A|--7------------7------------------------------------------------------------|
E|---------------------------5--5--5--5--5--5--5--5\7--7--7--7--7--7--7--7----|

Chorus Part 2 (1:30 / 1x)
e|------------------------------------------------------------------------------------------------------|
B|-----------------------------9--9--9--9--9--9--9--9\--7--7--7--7--7--7--7--7\--9--9--9--9--9--9--9--9-|
G|------------------------------------------------------------------------------------------------------|
D|---6--6--6--6--6--6--6--6\----------------------------------------------------------------------------|
A|---------------------------7--7--7--7--7--7--7--7\--6--6--6--6--6--6--6--6\--7--7--7--7--7--7--7--7---|
E|-5--5--5--5--5--5--5--5\------------------------------------------------------------------------------|

e|-------------------------|
B|-------------------------|
G|--11~---9~---11~---13~---|
D|-------------------------|
A|-------------------------|
E|--11~---9~---11~---12~---|

Bridge Part 1 (3:10 / 4x)

e|--------------------------------------------------------------------|
B|--------9-9-----9--------4-4-----4-----2-2----2--------4----4-------|
G|--------9-9-----9--------4-4-----4-----2-2----2--------4----4-------|
D|--------------------------------------------------------------------|
A|---7-7-------7------2-2-------2------0------0-----2-2-----2---------|
E|--------------------------------------------------------------------|

Bridge Part 2 (3:34)

                  A      E                H       C#m                 A
Und meine letzten Worte, bevor ich zu den Sternen schweb, man mich in Särge
E               H    C#m
legt und in die Erde gräbt.
            A      E               H    C#m
Ich hab dir mehr gegeben, als dein Werk beträgt.
                 A      E
Wir wollen nicht Erbsen zählen.
H    C#m
Gern geschehen.

Outro (4:01 / 2x)

e|---------------------------------------|
B|-----9---------------------------------|
G|--------8h9-----9p8----------6~----8~--|
D|-----------------------9---------------|
A|--7------------7-----------------------|
E|---------------------------5~----7~----|            
Submit corrections


        Trauerfeier lessons Hard to play? Try these video lessons and learn fast Trauerfeier lessons
        
↑ Back to top | Tablatures and chords for acoustic guitar and electric guitar, ukulele, drums are parodies/interpretations of the original songs. You may use it for private study, scholarship, research or language learning purposes only