» » »

Alligatoah - Trauerfeier Tabs

Artists:  A B C D E F G H I J K L M N O P Q R S T U V W X Y Z # 

Trauerfeier Tabs

(ver. 1) Click to play this song!
Alligatoah
 Rating:
4/5 (4 votes)

 Trauerfeier lessons Tabs too difficult? Try these video lessons and learn fast
 
                
----------------------------------

h - HammerOn
p - PullOff
() - je nach Geschmack spielen
~ - halten
m - Palm Mute
k - kurze Note, abbrechen

------------------------------


"Melodie"

Intro (clean)

|--------------------------------------------------------------------------------|
|-----9--------------------------------------------------------------------------|
|--------8-h-9-----9-p-8--------9-----9-----9-----9-----11-----11-----11-----11--|
|-------------------------9------------------------------------------------------|
|--7------------7----------------------------------------------------------------|
|----------------------------9-----9-----9-----9-----9------9------9------9------|

|-----------------------------9~---11~---|
|-----9----------------------------------|
|--------8-h-9-----9-p-8-----(9~)-(11~)--|
|-------------------------9--------------|      "Und Ruhe..."
|--7------------7------------------------|
|----------------------------------------|


Verse a (clean)

|--------------------------------------------------------------------------------|
|-----9--------------------------------------------------------------------------|
|--------8-h-9-----9-p-8--------9-----9-----9-----9-----11-----11-----11-----11--|    <--- 6 x
|-------------------------9------------------------------------------------------|
|--7------------7----------------------------------------------------------------|
|----------------------------9-----9-----9-----9-----9------9------9------9------|

"Und ich gab jedem Trauerfeierlied die selbe Chance
Keins war genug monumental und herzzereißend, von Queen bis Elton John
Diesen Harfensängern überlasse ich doch nicht die Show auf meiner großen Todesfeier
Hier der Song vom Zeremonienmeister
Das Fest beginnt, ich stell es mir gigantisch vor
Ich hoffe doch ihr habt mir einen Elefant besorgt
Ich seh prasselnden Regen in der Masse fließen Tränen
Kinderaugen fragen, wann sie Papa wieder sehen
Es gibt noch Fotos, da kann man mich in kraftbepackter Pracht betrachten
Ich hab auch T-Shirts und Kaffeetassen machen lassen
80 Tacken, die Bestattungskasse schluckt
Wer keins mehr kriegt, kann auch wahrscheinlich Bilder meiner straffen Brust" 


Verse b (clean)

|-----------------------------------------9---------|
|-----------------------------------------------9~--|
|------------------------9~------(9m)---------------|
|-----11~------(11m)--------------------------------|
|---------------------------------------------------|
|--9-----(9m)---------9----(9m)--------9-----9------|

|-----------------------------------------------------|
|-----------------------------------------------------|
|------------------------9~---9--9k--11~--------------|
|-----11~------(11m)----------------------------------|
|-----------------------------------------------------|
|--9-----(9m)---------9----9-----9k--9~---------------|

"auf allen privaten und offenen Kanälen
In Blogs und in jeglichem Wochenblatt sehen
Ich geh mal immer davon aus, dass das geklappt hat mit meiner Modellkarriere
Trotzdem Danke, für das zahlreiche Erscheinen, aber ja nicht streiten
Etwas Wartezeit und jeder darf sich vor dem Sarg verneigen
Pssst"


Chorus a (clean)  [ = Verse a ]

|--------------------------------------------------------------------------------|
|-----9--------------------------------------------------------------------------|
|--------8-h-9-----9-p-8--------9-----9-----9-----9-----11-----11-----11-----11--|    <--- 4 x
|-------------------------9------------------------------------------------------|
|--7------------7----------------------------------------------------------------|
|----------------------------9-----9-----9-----9-----9------9------9------9------|

"Ihr schafft den Rest allein
Wem ist heute keine Träne in die Hände geflossen?
Ihr schafft den Rest allein
Der ist ein schlechter Mensch und wird von Engeln erschossen
Ihr schafft den Rest allein
Doch es wird alles wieder gut
Ihr schafft den Rest allein
Denn ihr hört dieses Lied im Loop und"


Chorus b (clean)

|------------------------------------------------------|
|------------------------------------------------------|
|---------------------------------9-----9-----9-----9--|
|-----11-----11-----11-----11--------------------------|
|------------------------------------------------------|
|--9------9------9------9------9-----9-----9-----9-----|

  "Meine letzten Worte,         bevor ich zu den  

|------------------------------------------------------|
|---------------------------------9-----9-----9-----9--|
|-----11-----11-----11-----11--------------------------|
|------------------------------------------------------|
|------------------------------------------------------|
|--9------9------9------9------9-----9-----9-----9-----|

        Sternen                 schweb:                 

|------------------------------------------------------|
|------------------------------------------------------|
|-----9-----9-----11~---------------------9~-----------|
|------------------------------------------------------|
|-------------------------------------7~--7~-----------|
|--9-----9-----9--11~----------------------------------|

   Gern        geschehen"



6x Verse a

"Hört ihr den Wind in den Bäumen singen?
Ich werd euch den Weg weisen
Ich bin hier oben, über euch
Wie schon zu Lebzeiten
Dir, holde Maid, bin ich ein Schutzengel im Wolkenreich
Wenn du jemand andern fickst, dann werd ich eher Poltergeist
Jungs, ich werd euch auch fehlen, oder?
Denkt daran, dass ich euch stets mein Haustelefon gab
So viel gute Taten, alter, sogar schon der Bäcker im Dorf
Meinte, wenn ich weg bin ist die Welt ein besserer Ort
Ihr schafft den Rest allein
Also die Drecksarbeit
So'n Mausoleum bleibt nich von alleine fleckenfrei
Und rächt meinen Mord doch schafft euch Heimvorteil
Wenn er mich besiegt hat, muss er ein Cyborg sein"


Verse c (clean)

|-----------------------------------------9---------|
|-----------------------------------------------9~--|
|------------------------9~------(9m)---------------|
|-----11~------(11m)--------------------------------|
|---------------------------------------------------|
|--9-----(9m)---------9----(9m)--------9-----9------|

|-----------------------------------------------------|
|-----------------------------------------------------|
|------------------------9~---9--9~--13~--------------|
|-----11~------(11m)----------------------------------|
|------------------------------------11~--------------|
|--9-----(9m)---------9----9-----7~-------------------|

"Hab mittlerweile mir bestimmt 'ne Religion zugelegt
Um so  gut es geht
Der Angst vor dem Tod souverän zu entgehn
Hab nie großspurig Hochmut gelebt
Doch Paradiese reißen sich um mich, Losbudenmäßig eyyyyy"


4x Chorus a + Chorus b

[gleicher Text wie im ersten Chorus :)]


Am Ende des Chorus diesmal noch anhängen:

|--------------------|
|--------------------|
|--------------9~----|
|--------------------|
|--------------7~----|
|--7-/-9--12---------|


Solo (light distortion, crunchy guitar works nice)

|------------------------------------------------------------------------|
|--------9---------------------------------------------------------------|
|------------------------------8---------------9k---9-----------11k--11--|      2x
|-----9-----9--9-h-11-------9-----9-------9k--11k--11-------9k--13k--13--|
|--7-----------------------------------------------------7---------------|
|------------------------9-------------9---------------------------------|

|------------------------------------------------------------------------|
|------------------------------------------------------------------------|
|---------11k--11----------9k---9---------9k--9----------9k---9----------|
|-----9k--13k--13-----9k--11k--11-----9k--9k--9-----9k--11k--11----------|
|--7---------------7---------------7-------------7-----------------------|
|------------------------------------------------------------------------|

"Orchester"
"Piano"
"Feuerzeuge"
"Gesangssample"


Chorus c (gespielt mit (Power-)Chords, light distortion)

                E           A             Dbm7     C#
"Und meine letzten Worte, bevor ich zu den Sternen schweb
                E     A          Dbm7    C#
Man mich in Särge legt und in die Erde gräbt:
             E       A             Dbm7    C#
Ich hab dir mehr gegeben, als dein Wert beträgt
                 E       A        D      Gb5
Wir wolln nicht Erbsen zähln - Gern geschehn.."

(gespielt 2x Bassnote des Akkords, dann der ganze Akkord, einfach das Lied anhören :) )


Outro (clean)

|-------|--------------------------------------------------------------------------------|
|-------|-----9--------------------------------------------------------------------------|
|--11~--|--------8-h-9-----9-p-8--------9-----9-----9-----9-----11-----11-----11-----11--|  
|-------|-------------------------9------------------------------------------------------|
|-------|--7------------7----------------------------------------------------------------|
|-------|----------------------------9-----9-----9-----9-----9------9------9------9------|

|---------------------------------|
|-----9---------------------------|
|--------8-h-9-----9-p-8-----11~--|  
|-------------------------9-------|
|--7------------7-----------------|
|-----------------------------9~--|

"Und ich gab jedem Trauerfeierlied die selbe Chance
Keine Musikkapelle konnt mich überzeugen
Also schrieb ich schnell und prompt denn
Falls ich nie mit Nachwuchs zu meinen Schwiegereltern 
komm dann hinterlass ich lieber dieser Welt nen Song"


"FIN" :)


Verbesserungsvorschläge etc. gerne in die Kommentare, viel Spaß mit dem hammer Lied !
            
Submit corrections


        Trauerfeier lessons Hard to play? Try these video lessons and learn fast Trauerfeier lessons
        
↑ Back to top | Tablatures and chords for acoustic guitar and electric guitar, ukulele, drums are parodies/interpretations of the original songs. You may use it for private study, scholarship, research or language learning purposes only