Home » A » All »

All - Cant Say Tabs

Artists:  A B C D E F G H I J K L M N O P Q R S T U V W X Y Z # 

Cant Say Tabs

(ver. 1) Click to play this song!
All
Tuning: Standard EADGBE

Play it with the "Live Plus One" version (2001) is really cool !

Intro riff. x2

E|---------------------------------|---------------------------------|
B|---------------------------------|---------------------------------|
G|---------------------------------|---------------------------------|
D|-7---7---9---9---7---7---9---9---|-7---7---9---9---7---7---9---9---|
A|---------------------------------|---------------------------------|
E|---------------------------------|---------------------------------|


E|---------------------------------|---------------------------------|
B|-7---10--10--10--10--7---7---7---|-7---10--10--10--10--7---7---7---|
G|-6---9---9---9---9---6---6---6---|-6---9---9---9---9---6---6---6---|
D|---------------------------------|---------------------------------|
A|---------------------------------|---------------------------------|
E|---------------------------------|---------------------------------|


Verse. x2

E|------------------------------|------------------------|
B|------------------------------|------------------------|
G|------------------------------|-6----6---6----6---6----|
D|-7----7---7---7---7---7---7---|-6----6---6----6---6----|
A|-7----7---7---7---7---7---7---|-4----4---4----4---4----|
E|-5----5---5---5---5---5---5---|------------------------|

P.M. ------------------------


E|------------------------------|------------------------|
B|------------------------------|------------------------|
G|-7----7---7---7---7---7---7---|-6----6-----------------|
D|-7----7---7---7---7---7---7---|-6----6---4----4---4----|
A|-5----5---5---5---5---5---5---|-4----4---4----4---4----|
E|------------------------------|----------2----2---2----|

   P.M. ---------------------


E|------------------------------|------------------------|
B|------------------------------|------------------------|
G|-7----7---7---7---7---7---7---|-6----6-----------------|
D|-7----7---7---7---7---7---7---|-6----6---4----4---4----|
A|-5----5---5---5---5---5---5---|-4----4---4----4---4----|
E|------------------------------|----------2----2---2----|

   P.M. ---------------------


E|------------------------------|---------------------------------|
B|------------------------------|---------------------------------|
G|-7----7---7---7---7---7---7---|---------------------------------|
D|-7----7---7---7---7---7---7---|-9---9---9---9---9---9---9---9---|
A|-5----5---5---5---5---5---5---|-9---9---9---9---9---9---9---9---|
E|------------------------------|-7---7---7---7---7---7---7---7---|

Intro riff. x2

Verse. x2

Chorus.

E|-----------------------|----------------------|---------------------------------|
B|-----------------------|----------------------|---------------------------------|
G|-----------------------|----------------------|-11--11--11--11--11--11--11--11--|
D|-----------------------|----------------------|-11--11--11--11--11--11--11--11--|
A|-9---11--9---11\-------|-9—--11--9---11\------|-9---9---9---9---9---9---9---9---|
E|-7---9---7---9-\-------|-7---9---7---9-\------|---------------------------------|


E|---------------------------------|---------------------------------|---------------------------------|
B|---------------------------------|---------------------------------|---------------------------------|
G|-11--11--11--11--11--11--11--11--|-4---4---4---4---4---4---4---4---|-4---4---4---4---4---4---4---4---|
D|-11--11--11--11--11--11--11--11--|-4---4---4---4---4---4---4---4---|-4---4---4---4---4---4---4---4---|
A|-9---9---9---9---9---9---9---9---|-2---2---2---2---2---2---2---2---|-2---2---2---2---2---2---2---2---|
E|---------------------------------|---------------------------------|---------------------------------|


E|---------------------------------|---------------------------------|
B|---------------------------------|---------------------------------|
G|-7---7---7---7---7---7---7---7---|-9---9---9---9---9---9---9---9---|
D|-7---7---7---7---7---7---7---7---|-9---9---9---9---9---9---9---9---|
A|-5---5---5---5---5---5---5---5---|-7---7---7---7---7---7---7---7---|
E|---------------------------------|---------------------------------|

Intro riff. x2 1/2


Bridge.

E|-------------------------|----------------------|----------------------|---------------------|
B|-------------------------|----------------------|----------------------|---------------------|
G|-----9--9--------9---9---|-----6--6------6--6---|-----11-11-----11-11--|---------------------|
D|-9---9--9----9---9---9---|-6---6--6---6--6--6---|-11--11-11--11-11-11--|-9---9--9---9--9--9--|
A|-7---7--7----7---7---7---|-4---4--4---4--4--4---|-9---9--9---9--9--9---|-9---9--9---9--9--9--|
E|-7---7--7----7---7---7---|-4---4--4---4--4--4---|-9---9--9---9--9--9---|-7---7--7---7--7--7--|


E|---------------------------------|---------------------------------|-10--10--10--10--10--10--10--10--|
B|-5---5---5---5---5---5---5---5---|-5---5---5---5---5---5---5---5---|-13b-13b-13b-13b-13b-13b-13b-13b-|
G|-7b--7b--7b--7b--7b--7b--7b--7b--|-7b--7b--7b--7b--7b--7b--7b--7b--|---------------------------------|
D|---------------------------------|---------------------------------|---------------------------------|
A|---------------------------------|---------------------------------|---------------------------------|
E|---------------------------------|---------------------------------|---------------------------------|


E|-12--12--12--12--12--12--12--12--|
B|-15b-15b-15b-15b-15b-15b-15b-15b-|
G|---------------------------------|
D|---------------------------------|
A|---------------------------------|
E|---------------------------------|

Chorus.

Verse. x2

End .

E|------------------------------|
B|------------------------------|
G|------------------------------|
D|-7----------------------------|
A|-7----------------------------|
E|-5----------------------------|
            
Submit corrections

↑ Back to top | Tablatures and chords for acoustic guitar and electric guitar, ukulele, drums are parodies/interpretations of the original songs. You may use it for private study, scholarship, research or language learning purposes only