Home » A » Alkaline Trio »

Alkaline Trio - Fatally Yours Tabs

Artists:  A B C D E F G H I J K L M N O P Q R S T U V W X Y Z # 

Fatally Yours Tabs

(ver. 1) Click to play this song!
Alkaline Trio
 Rating:
4/5 (4 votes)
                This tab should be correct. It is pretty easy to follow,
just listen to the song and it will come. Questions, comments,

~ = Let Ring
Strumming pattern not shown

Intro/Verse
e|------------------------------------------|
B|------------------------------------------|
G|------------------------------------------|
D|-11-11-11-11-12-12-12-12--14--12-11-11-11-|
A|--0--0--0--0--0--0--0--0---0---0--0--0--0-|
E|------------------------------------------|

Transition
e|----------------------|
B|----------------------|
G|------------9-9-9-9-9-|
D|-7-7-7-7-7--9-9-9-9-9-|
A|-7-7-7-7-7--7-7-7-7-7-|
E|-5-5-5-5-5------------|
  "I answered every question as accurately as I could"

Chorus
e|-------------------------------|
B|-------------------------------|
G|------------9-9-9-9-9--7-7-7-7-|
D|-7-7-7-7-7--9-9-9-9-9--7-7-7-7-|
A|-7-7-7-7-7--7-7-7-7-7--5-5-5-5-|
E|-5-5-5-5-5---------------------|

Verse 3
e|--------------------|
B|--------------------|
G|--------------------|
D|-11~--12~--11~--12~-|
A|--0~---0~---0~---0~-|
E|--------------------|

Transition Part
Intro
                              
Outro
e|----------------------------------------------------|
b|----------------------------------------------------|
g|-----------------------------------6-6-6-6--7-7-7-7-|
d|-11--11--14--14--12--12--11--11----6-6-6-6--7-7-7-7-|
a|--0---0---0---0---0---0---0---0----4-4-4-4--5-5-5-5-|
E|----------------------------------------------------|

End On
e|------|
B|------|
G|------|
D|--7~--|
A|--7~--|
E|--5~--|
            
Submit corrections

↑ Back to top | Tablatures and chords for acoustic guitar and electric guitar, ukulele, drums are parodies/interpretations of the original songs. You may use it for private study, scholarship, research or language learning purposes only