» » »

Alkaline Trio - Dead End Road Tabs

Artists:  A B C D E F G H I J K L M N O P Q R S T U V W X Y Z # 

Dead End Road Tabs

(ver. 2) Click to play this song!
Alkaline Trio
 Rating:
4.3/5 (10 votes)

 Dead End Road lessons Tabs too difficult? Try these video lessons and learn fast
 
                Tuning:Standard  


0:00
e|---------------------------------------------------------------------------|
B|---------------------------------------------------------------------------|
G|---------------------------------------------------------------------------|
D|--------------------------12-12--121212-12-1212-12121212-------------------|
A|-10-10--101010-9-99-9999--9--9---9-9-9--10-1010-10101010-------------------|
E|-7--7---7-7-7--7-77-7777---------------------------------------------------|

e|---------------------------------------------------------------------------|
B|---------------------------------------------------------------------------|
G|--------------------------9999999999999999---------------------------------|
D|--------------------------7777777777777777---------------------------------|
A|-10-10--101010-9-99-9999--0000000000000000---------------------------------|
E|-7--7---7-7-7--7-77-7777---------------------------------------------------|

e|---------------------------------------------------------------------------|
B|---------------------------------------------------------------------------|
G|---------------------------------------------------------------------------|
D|--------------------------12-12--121212-12-1212-12121212-------------------|
A|-10-10--101010-9-99-9999--9--9---9-9-9--10-1010-10101010-------------------|
E|-7--7---7-7-7--7-77-7777---------------------------------------------------|

e|---------------------------------------------------------------------------|
B|---------------------------------------------------------------------------|
G|--------------------------9999999999999999---------------------------------|
D|--------------------------77777777777777775555555544442222-----------------|
A|-10-10--101010-9-99-9999--00000000000000000000000000000000-----------------|
E|-7--7---7-7-7--7-77-7777---------------------------------------------------|


0:18
e|------|------|------|------|------|------|------|--------------------------|
B|------|------|------|------|------|------|------|--------------------------|
G|------|------|------|------|------|------|------|--------------------------|
D|-7777-|-7777-|------|------|-7777-|-7777-|------|--------------------------|
A|-5555-|-5555-|-5555-|-7777-|-5555-|-5555-|-5555-|-7~----5~-----------------|
E|------|------|-3333-|-5555-|------|------|-3333-|-5~----3~-----------------|


0:32 (Same chord structure as above but fast up/down strokes)
e|---------------------------------------------------------------------------|
B|---------------------------------------------------------------------------|
G|---------------------------------------------------------------------------|
D|-7------7--------------------7------7--------------------------------------|
A|-5------5------5------7------5------5------5------7-----5------------------|
E|---------------3------5--------------------3------5-----3------------------|


0:47
e|---------------------------------------------------------------------------|
B|---------------------------------------------------------------------------|
G|---------------------------------------------------------------------------|
D|--------------------------12-12--121212-12-1212-12121212-------------------|
A|-10-10--101010-9-99-9999--9--9---9-9-9--10-1010-10101010-------------------|
E|-7--7---7-7-7--7-77-7777---------------------------------------------------|

e|---------------------------------------------------------------------------|
B|---------------------------------------------------------------------------|
G|--------------------------9999999999999999---------------------------------|
D|--------------------------7777777777777777---------------------------------|
A|-10-10--101010-9-99-9999--0000000000000000---------------------------------|
E|-7--7---7-7-7--7-77-7777---------------------------------------------------|


0:55
e|------|------|------|------|------|------|------|--------------------------|
B|------|------|------|------|------|------|------|--------------------------|
G|------|------|------|------|------|------|------|--------------------------|
D|-7777-|-7777-|------|------|-7777-|-7777-|------|--------------------------|
A|-5555-|-5555-|-5555-|-7777-|-5555-|-5555-|-5555-|-7~----5~-----------------|
E|------|------|-3333-|-5555-|------|------|-3333-|-5~----3~-----------------|


1:09 (Same chord structure as above but fast up/down strokes)
e|---------------------------------------------------------------------------|
B|---------------------------------------------------------------------------|
G|---------------------------------------------------------------------------|
D|-7------7--------------------7------7--------------------------------------|
A|-5------5------5------7------5------5------5------7-----5------------------|
E|---------------3------5--------------------3------5-----3------------------|


1:24 (continue the fast up/down strokes)
e|---------------------------------------------------------------------------|
B|---------------------------------------------------------------------------|
G|---------------------------------------------------------------------------|
D|----------7-------------9-----------------7-------------9------------------|
A|-9--------5--------5----7--------9--------5--------5----7------------------|
E|-7-----------------3-------------7-----------------3-----------------------|


1:39
e|---------------------------------------------------------------------------|
B|---------------------------------------------------------------------------|
G|---------------------------------------------------------------------------|
D|-7-7-777-7-77-7777-------------------7-7-777-7-77-7777---------------------|
A|-5-5-555-4-44-4444-7-7-777-5-55-5555-5-5-555-4-44-4444-7-7-777-5-55-5555---|
E|-------------------5-5-555-3-33-3333-------------------5-5-555-3-33-3333---|


1:46
e|---------------------------------------------------------------------------|
B|---------------------------------------------------------------------------|
G|---------------------------------------------------------------------------|
D|--------------------------12-12--121212-12-1212-12121212-------------------|
A|-10-10--101010-9-99-9999--9--9---9-9-9--10-1010-10101010-------------------|
E|-7--7---7-7-7--7-77-7777---------------------------------------------------|

e|---------------------------------------------------------------------------|
B|---------------------------------------------------------------------------|
G|--------------------------9999999999999999---------------------------------|
D|--------------------------7777777777777777---------------------------------|
A|-10-10--101010-9-99-9999--0000000000000000---------------------------------|
E|-7--7---7-7-7--7-77-7777---------------------------------------------------|

e|---------------------------------------------------------------------------|
B|---------------------------------------------------------------------------|
G|---------------------------------------------------------------------------|
D|--------------------------12-12--121212-12-1212-12121212-------------------|
A|-10-10--101010-9-99-9999--9--9---9-9-9--10-1010-10101010-------------------|
E|-7--7---7-7-7--7-77-7777---------------------------------------------------|

e|---------------------------------------------------------------------------|
B|---------------------------------------------------------------------------|
G|--------------------------9999999999999999---------------------------------|
D|--------------------------77777777777777775555555544442222-----------------|
A|-10-10--101010-9-99-9999--00000000000000000000000000000000-----------------|
E|-7--7---7-7-7--7-77-7777---------------------------------------------------|


2:03
e|---------------------------------------------------------------------------|
B|---------------------------------------------------------------------------|
G|---------------------------------------------------------------------------|
D|---------------------------------------------------------------------------|
A|-7-------------------------------------------------------------------------|
E|-5--let ring---------------------------------------------------------------|


2:17 (fast up/down strokes)
e|---------------------------------------------------------------------------|
B|---------------------------------------------------------------------------|
G|---------------------------------------------------------------------------|
D|-7------7--------------------7------7--------------------------------------|
A|-5------5------5------7------5------5------5------7-----5------------------|
E|---------------3------5--------------------3------5-----3------------------|


2:32 (continue the fast up/down strokes)
e|---------------------------------------------------------------------------|
B|---------------------------------------------------------------------------|
G|---------------------------------------------------------------------------|
D|----------7-------------9-----------------7-------------9------------------|
A|-9--------5--------5----7--------9--------5--------5----7------------------|
E|-7-----------------3-------------7-----------------3-----------------------|


2:46
e|---------------------------------------------------------------------------|
B|---------------------------------------------------------------------------|
G|---------------------------------------------------------------------------|
D|-7-7-777-7-77-7777-------------------7-7-777-7-77-7777---------------------|
A|-5-5-555-4-44-4444-7-7-777-5-55-5555-5-5-555-4-44-4444-7-7-777-5-55-5555---|
E|-------------------5-5-555-3-33-3333-------------------5-5-555-3-33-3333---|

e|---------------------------------------------------------------------------|
B|---------------------------------------------------------------------------|
G|---------------------------------------------------------------------------|
D|-7-7-777-7-77-7777-------------------7-7-777-7-77-7777---------------------|
A|-5-5-555-4-44-4444-7-7-777-5-55-5555-5-5-555-4-44-4444-7-7-777-5~----------|
E|-------------------5-5-555-3-33-3333-------------------5-5-555-3~-let ring-|            
Submit corrections


        Dead End Road lessons Hard to play? Try these video lessons and learn fast Dead End Road lessons
        
↑ Back to top | Tablatures and chords for acoustic guitar and electric guitar, ukulele, drums are parodies/interpretations of the original songs. You may use it for private study, scholarship, research or language learning purposes only