» » »

Alkaline Trio - Continental Tabs

Artists:  A B C D E F G H I J K L M N O P Q R S T U V W X Y Z # 

Continental Tabs

(ver. 1) Click to play this song!
Alkaline Trio
 Rating:
4/5 (4 votes)

 Continental lessons Tabs too difficult? Try these video lessons and learn fast
 
                alkaline trio
good mourning
track4 -= continental


standard tuning

intro
e----------------------------------------------------------------------
b----------------------------------------------------------------------
g----------------------------------------------------------------------
d-----6-----4-----7-----6-----4-----6-----6-----4------1-1-1-2-2-2-1-1-
a-4-4---4-4---4-4---4-4---4-4---4-4---0-0---0-0---0-0--2-2-2-2-2-2-2-2-
e----------------------------------------------------------------------

verse 1("i've got a dying urge...")
e------------------------------------
b------------------------------------
g------------------------------------
d-66666666-66677777-4444444444444444-
a-44444444-00000000-2222222222222222-  x3
e------------------------------------

e------------------------------------
b------------------------------------
g------------------------------------
d-22222222----------4444444444444444-
a-00000000-22222222-2222222222222222-
e----------00000000------------------

e------------------------------------
b------------------------------------
g------------------------------------
d-66666666-66677777-4444444444444444-
a-44444444-00000000-2222222222222222- x2
e------------------------------------

("i've got your pictures...")
e-----------------------------------------------------
b-----------------------------------------------------
g-----------------------------------------------------
d-66666666-66677777-9999999999999999------------------
a-44444444-00000000-7777777777777777-9999999999999999-
e------------------------------------7777777777777777-

chorus ("you had nine lives...")
e------------------------------------
b------------------------------------
g-------------------4444444444444444-
d-77777777-22222222-4444444444444444- x3
a-77777777-22222222-2222222222222222-
e-55555555-00000000------------------

e------------------------------------
b------------------------------------
g------------------------------------
d-66666666-77777777-9999999999999999-
a-66666666-77777777-9999999999999999-
e-44444444-55555555-7777777777777777-

repeat main riff

repeat verse (palm mute)

bridge
e---------------
b---------------
g---------------
d-6~----12~-13~-
a-4~------------
e---------------

main riff palm muted once
main riff open once (minus the chord part)

then
e--------------------------
b--------------------------
g--------------------------
d-111222112211212121212121-
a-222222222222222222222222-
e--------------------------
  ........................ <- palm

pick slide, then chorus again

end on
e----
b----
g----
d-2~-
a-2~-
e-0~-
            
Submit corrections


        Continental lessons Hard to play? Try these video lessons and learn fast Continental lessons
        
↑ Back to top | Tablatures and chords for acoustic guitar and electric guitar, ukulele, drums are parodies/interpretations of the original songs. You may use it for private study, scholarship, research or language learning purposes only