» » »

Alkaline Trio - Calling All Skeletons Tabs

Artists:  A B C D E F G H I J K L M N O P Q R S T U V W X Y Z # 

Calling All Skeletons Tabs

(ver. 1) Click to play this song!
Alkaline Trio
 Rating:
4/5 (4 votes)

 Calling All Skeletons lessons Tabs too difficult? Try these video lessons and learn fast
 
                Band: Alkaline Trio

Verse 1 & 2:

'Here it is Again...'

e|-----------------------------------------------|
B|-----------------------------------------------|
G|-------5-5-5-----7-7-7-------------------------| x13
D|--2-2--5-5-5-5-5-7-7-7-------------------------|
A|--2-2--3-3-3-5-5-5-5-5-------------------------|
E|--0-0--------3-3-------------------------------|

The verse changes the fourteenth time, so at the end of that palm mute this,

'Calling All...'

e|-----------------------------------------------|
B|-----------------------------------------------|
G|---5-------------------------------------------|
D|---5-------------------------------------------|
A|---3-------------------------------------------|
E|-----------------------------------------------|
     .

Chorus.

'Where did You Go...'

e|-----------------------------------------------|
B|-----------------------------------------------|
G|----------------------7------------------------| 
D|-2------5------7------7[x8]--------------------|
A|-2[x8]--5[x8]--7[x8]--5------------------------|
E|-0------3------5-------------------------------|

'I've grown to love'

e|-----------------------------------------------|
B|-----------------------------------------------|
G|-----------------------------------------------| 
D|-2------4------5------7[x8]--------------------|
A|-2[x8]--5[x8]--5[x8]--7------------------------|
E|-0------2------3------5------------------------|

Guitar 2:

There are some harmonics playing in the chorus, this is what I can hear from them

e|--12-----15--14--12----------------------------|
B|-----12-------------12-------------------------|
G|-----------------------------------------------|
D|-----------------------------------------------|
A|-----------------------------------------------|
E|-----------------------------------------------|

Verse 2:

'Now The Time Has Come...'

[Repeat Tab About]

Verse Part 2

'Loooove, Looking For Love...'

e|-----------------------------------------------|
B|-----------------------------------------------|
G|---------5-5-5--------7-7-7--------------------| x2
D|--2-2-x--5-5-5-5-5-x--7-7-7--------------------|
A|--2-2-x--3-3-3-5-5-x--5-5-5--------------------|
E|--0-0-x--------3-3-x---------------------------|

'Yeah He's Looking for...'

e|-----------------------------------------------|
B|-----------------------------------------------|
G|---5-------------------------------------------|
D|---5-------------------------------------------|
A|---3-------------------------------------------|
E|-----------------------------------------------|
     .

Chorus:

'Where Did You Go...'

[Repeat Tab Above]

Bridge:

Figure Out Strumming

'And To Tell You The Truth...]

e|-----------------------------------------------|
B|-----------------------------------------------|
G|---5---7---9-----------------------------------|
D|---5---7---9---5-------------------------------|x2
A|---3---5---7---5-------------------------------|
E|---------------3-------------------------------|

'Her Heart Is Just...'

e|-----------------------------------------------|
B|-----------------------------------------------|
G|---5-------7-----------------------------------|
D|---5[x8]---7[x8]-------------------------------|
A|---3-------5-----------------------------------|
E|-----------------------------------------------|

The Verse Riff sort of interrupts the end of the bridge

Verse Riff [Gutiar Only]

e|-----------------------------------------------|
B|-----------------------------------------------|
G|-------5-5-5-----7-7-7-------------------------| x3
D|--2-2--5-5-5-5-5-7-7-7-------------------------|
A|--2-2--3-3-3-5-5-5-5-5-------------------------|
E|--0-0--------3-3-------------------------------|

e|-----------------------------------------------|
B|-----------------------------------------------|
G|---5-------------------------------------------|
D|---5-------------------------------------------|
A|---3-------------------------------------------|
E|-----------------------------------------------|
     .

Chorus

'Where Did You Go...'

e|-----------------------------------------------|
B|-----------------------------------------------|
G|----------------------7------------------------| x4
D|-2------5------7------7[x8]--------------------|
A|-2[x8]--3[x8]--7[x8]--5------------------------|
E|-0------3------5-------------------------------|

'Gotta Stop Sneaking Up On Me...'

e|-----------------------------------------------|
B|-----------------------------------------------|
G|---5-------7-----------------------------------|
D|---5[x8]---7[x8]-------------------------------|
A|---3-------5-----------------------------------|
E|-----------------------------------------------|

End On

e|---7-------------------------------------------|
B|---8-------------------------------------------|
G|---9-------------------------------------------|
D|---9-------------------------------------------|
A|---7-------------------------------------------|
E|-----------------------------------------------|
            
Submit corrections


        Calling All Skeletons lessons Hard to play? Try these video lessons and learn fast Calling All Skeletons lessons
        
↑ Back to top | Tablatures and chords for acoustic guitar and electric guitar, ukulele, drums are parodies/interpretations of the original songs. You may use it for private study, scholarship, research or language learning purposes only