» » »

Alkaline Trio - Blue Carolina Tabs

Artists:  A B C D E F G H I J K L M N O P Q R S T U V W X Y Z # 

Blue Carolina Tabs

(ver. 3) Click to play this song!
Alkaline Trio
 Rating:
4/5 (4 votes)

 Blue Carolina lessons Tabs too difficult? Try these video lessons and learn fast
 
                
Intro/Verse:

e|--------------------------------------------------
B|-8------------------------------------------------
G|-9-----------9--7--5--7--9-9--9-9-9--9-9-9--9-9-9-
D|-9---7---9---9--7--5--7---------------------------
A|-7---7---9---7--5--3--5--7-7--7-7-7--7-7-7--7-7-7-
E|-----5---7----------------------------------------

Bridge:

e|----------------------------
B|----------------------------
G|--5----7--------------------
D|--5----7--------------------
A|--3----5--------------------
E|----------------------------

Chorus:

e|----------------------------
B|----------------------------
G|--------5------7------------
D|--5-----5-x8---7-x16--------
A|--5-x8--3------5------------
E|--3-------------------------

Post 1st Chorus:

e|--------------------------------------------------------------------
B|--------------------------------------------------------------------
G|----------------------------5-----7--------9-9--9-9-9--9-9-9--9-9-9-
D|---2-XX--7-xx--2-xx--7-xx---5-x6--7-x6------------------------------
A|---2-XX--7-xx--2-xx--7-xx---3-----5--------7-7--7-7-7--7-7-7--7-7-7-
E|---0-XX--5-xx--0-xx--5-xx-------------------------------------------

Post 2nd Chorus:

e|----------------------------------------
B|----------------------------------------
G|----------------------------5-----7-----
D|---2-----7-----2-----7------5-x6--7-x6--
A|---2-X8--7-x8--2-x8--7-x8---3-----5-----
E|---0-----5-----0-----5------------------


Breakdown:



e|---------------------------------------------------------------------------------
B|---------------------------------------------------------------------------------
G|--4------5-------------5------------7-----5--------------------------5-----7-----
D|--4-x16--5-x16--5------5-x16--5-----7-x8--5-x16--5-----4-----2-------5-x8--7-x8--
A|--2------3------5-x16--3------5-x8--5-----3------5-x8--4-x8--2-x16---3-----5-----
E|----------------3-------------3------------------3-----2-----0-------------------
PM-----------------------------------------------------------|


Guitar 2:

"...ask myself how badly do i want this..."

e|-->>>>7----5----3---------
B|--------------------------
G|--------------------------
D|--------------------------
A|--------------------------
E|--------------------------

Guitar 2 Post Chorus Outro:

e|---------------------------------------------------
B|--->>>>>8888888888<<<<<<-->>>>>>88888888-----------
G|------------------------------------------77777777-
D|---------------------------------------------------
A|---------------------------------------------------
E|--------------------------------------------------- x2


End:

e|---------------------------
B|---------------------------
G|---------------------------
D|---2-xx--------------------
A|---2-xx--------------------
E|---0-xx--------------------


Order:

Intro/Verse x3
Bridge
Chorus
Bridge
Chorus x2
Post 1st Chorus
Intro/Verse x2
Bridge
Chorus
Bridge
Chorus x2
Post 1st Chorus
Post 2nd Chorus
Breakdown *at end, optional guitar 2*
Bridge
Chorus
Bridge
Chorus x2
Post 2nd Chorus *Optional post chorus outro guitar 2*
End
            
Submit corrections


        Blue Carolina lessons Hard to play? Try these video lessons and learn fast Blue Carolina lessons
        
↑ Back to top | Tablatures and chords for acoustic guitar and electric guitar, ukulele, drums are parodies/interpretations of the original songs. You may use it for private study, scholarship, research or language learning purposes only