» » »

Alkaline Trio - Bloodied Up Tabs

Artists:  A B C D E F G H I J K L M N O P Q R S T U V W X Y Z # 

Bloodied Up Tabs

(ver. 3) Click to play this song!
Alkaline Trio
 Rating:
4/5 (4 votes)

 Bloodied Up lessons Tabs too difficult? Try these video lessons and learn fast
 
                
Intro

e-----------------------------------------
B-----------------------------------------
G-----------------------------------------
D---------------6-6-6-6-6--7-7-7-7-7------
A--7-7-7-7-7-7--4-4-4-4-4--5-5-5-5-5------
E--5-5-5-5-5-5----------------------------


Verse

e-----------------------------------------
B-----------------------------------------
G-----------------------------------------
D---------------6-6-6-6-6--7-7-7-7-7------
A--7-7-7-7-7-7--4-4-4-4-4--5-5-5-5-5------
E--5-5-5-5-5-5----------------------------
p.m.................................

Chorus

e------------------------------------------------------------
B------------------------------------------------------------
G------------------------------------------------------------
D-------------------------------------7-7-7-7-7--9-9-9-9-9---
A--7-7-7-7-7-7--4-4-4-4-4--2-2-2-2-2--5-5-5-5-5--7-7-7-7-7---
E--5-5-5-5-5-5--2-2-2-2-2--0-0-0-0-0-------------------------

Bridge

e------------------------------------------
B------------------------------------------
G------------------------------------------
D--9-9-9-9-9-9-9-9--6-6-6-6-6--7-7-7-7-7---   x3
A--7-7-7-7-7-7-7-7--4-4-4-4-4--5-5-5-5-5---
E------------------------------------------

e--------------------------------
B--------------------------------
G-------------------------------- 4th time
D--------------------------------
A--9-9-9-9-9-9--7-7-7-7-7-7------
E--7-7-7-7-7-7--5-5-5-5-5-5------

Outro

e------------------------------------------------------------
B------------------------------------------------------------
G--14-14-14-14-14------------11-11-11-11-11--9-9-9-9---------
D--x--x--x--x--x---11-11-11--x--x--x--x--x---x-x-x-x---------
A--12-12-12-12-12--x--x--x---9--9--9--9--9---7-7-7-7---------
E------------------9--9--9-----------------------------------
                                                                              

e------------------------------------------------------------
B------------------------------------------------------------
G--13-13-14-14-14-7-7-7-7-9-9-9-9-7-7------------------------
D--x--x--x--x--x--x-x-x-x-x-x-x-x-x-x------------------------
A--11-11-12-12-12-5-5-5-5-7-7-7-7-5-5--7---------------------
E--------------------------------------5---------------------
            
Submit corrections


        Bloodied Up lessons Hard to play? Try these video lessons and learn fast Bloodied Up lessons
        
↑ Back to top | Tablatures and chords for acoustic guitar and electric guitar, ukulele, drums are parodies/interpretations of the original songs. You may use it for private study, scholarship, research or language learning purposes only