Home » A » Alien Ant Farm »

Alien Ant Farm - Smooth Criminal Tabs

Artists:  A B C D E F G H I J K L M N O P Q R S T U V W X Y Z # 

Smooth Criminal Tabs
Version #1
Alien Ant Farm


Copy URL

hi. this is my 1st ever tab, so dont expect a work of art. i'd say 
its probably correct. see what u think.

INTRO/VERSE
e-----------------------------------------
b-----------------------------------------    introx4
g-----------------------------------------    versex3
d-7----777777-9-9---99-10-10-10-10-9-5-7--    
a-7----777777-9-9---99-10-10-10-10-9-5-7--
E-5----555555-7-7---77-8 -8 -8 -8 -7-3-5--

last line of verse
e----------------------------------
b----------------------------------
g----------------------------------
d-777777-9-9-99-10-10-10-10-9-5-3--
a-777777-9-9-99-10-10-10-10-9-5-3--
E-555555-7-7-77-8 -8 -8 -8 -7-3-1--

pre-chorus
e---------------------------------
b---------------------------------
g---------------------------------   x2
d-3-3-3-3-3-3-3-3-3-3-3-33-5-5-x--
a-3-3-3-3-3-3-3-3-3-3-3-33-5-5-x--
E-1-1-1-1-1-1-1-1-1-1-1-11-3-3-x--

                          dx-x-x--      
      same as above       ax-x-x--     3rd timex1
                          Ex-x-x--

last line of pre-chorus
e-----------------------------
b-----------------------------
g-----------------------------    x1
d-3-3-3-3-3-3-3-3-2--5-2-5-7--
a-3-3-3-3-3-3-3-3-2--5-2-5-7--
E-1-1-1-1-1-1-1-1-0--3-0-3-5--

chorus
e-------------------------------
b-------------------------------
g-------------------------------    x3
d-777777-5-5-55-3-3-33-5-2-5-7--
a-777777-5-5-55-3-3-33-5-2-5-7--
E-555555-3-3-33-1-1-11-3-0-3-5--

      same as above        d-3--
                           a-3--    4th timex1
                           E-1--

pre-chorusx3

"you've been hit by", etc
e----------------------
b----------------------
g----------------------
d--2----2-2---2-----7--
a--2----2-2---2-----7--
E--0----0-0---0-----5--

verse

pre-chorus

chorus

pre-chorusx1

"you've been hit by", etc

solo
e----------------------
b----------------------
g----------------------     x8     fiddle around with the solo a
d-7-7-7-10-9-5-777777--            little,it'll sound right after a
a----------------------            bit
E----------------------

chorus

pre-chorus

outro,which is introx2+ riffs below
e-----------------------------
b-----------------------------
g-----------------------------
d-777777-5-5-55-3-3-33-2-5-7--
a-777777-5-5-55-3-3-33-2-5-7--
E-555555-3-3-33-1-1-11-0-3-5--

introx1 and end on d-7
                   a-7
                   E-5

listen to the song and add in palm mutes and stuff whenever.bye!
            
Submit corrections

↑ Back to top | Tablatures and chords for acoustic guitar and electric guitar, ukulele, drums are parodies/interpretations of the original songs. You may use it for private study, scholarship, research or language learning purposes only