Home » A » Alien Ant Farm »

Alien Ant Farm - Smooth Criminal 4string Bass

Artists:  A B C D E F G H I J K L M N O P Q R S T U V W X Y Z # 

Smooth Criminal 4string Bass
Version #1
Alien Ant Farm


Copy URL
artist - alien ant farm
album - anthology

PLEASE RATE THIS <3

Intro  (0:00)
G----
D----
A----
E-5--

G----------------------------------------
D----------------------------------------  X4
A-0-0-0-0--0--0-2-2-2--0-2-3-3--3-3-2---0
E---------3---------------------------3--

1st verse
G----------------------------------------
D----------------------------------------  X3
A-0-0-0-0--0--0-2-2-2--0-2-3-3--3-3-2---0
E---------3---------------------------3--

G----------------------------------------
D----------------------------------------
A-0-0-0-0---0-2-2--0-2-3-3--3-3-2--------
E---------3-----------------------3--1~--

Pre-Chorus  (0:30, 1:31)
G---------------------------------
D-----------3--------3------5-----  X3
A---------------------------------
E-1-1-0-0-1----0-0-1----0-3----1--

4th time
G--------------------------------------
D-----------3--------3-----------------
A--------------------------------------
E-1-1-0-0-1----0-0-1----0--0--3-0-3-5--

1st and 2nd Chorus  (0:46, 1:46)
G----------------------------------------
D----------------------------------------  X2
A----------------------------------------
E-5-5-5-5-5-5-3-3--3-3-1-1--1-1-3-1-3-5--

G----------------------------------------
D----------------------------------------
A----------------------------------------
E-5-5-5-5-5-5-3-3--3-3-1-1--1-1-0-0-3-5--

G-----------------------------------------
D-----------------------------------------
A-----------------------------------------
E-5-5-5-5-5-5-3-3--3-3-1-1--1-1-0-0-3-1~--

G-----------------------------------
D-----------3--------3------5-------  X2
A-----------------------------------
E-1-1-0-0-1----0-0-1----0-3---0-1~--

then verse1 x1
chorus x1
verse x1
chorus x1

Outro  (3:09)
G---------------------------------------
D---------------------------------------  X2
A-0-0-0-0---0-2-2--0-2-3-3--3-3-2----0--
E---------3-----------------------3-----

G----------------------------------------
D----------------------------------------
A-0-0-0-0-----------------------------0--
E---------0-0-3-3--3-3-1-1--1-1-0-0-3----

G------------------------------------
D------------------------------------
A-0-0-0-0---0-2-2--0-2-3-3--3-3-2----
E---------3-----------------------3--
            
Submit corrections

↑ Back to top | Tablatures and chords for acoustic guitar and electric guitar, ukulele, drums are parodies/interpretations of the original songs. You may use it for private study, scholarship, research or language learning purposes only