Home » A » Alice Cooper »

Alice Cooper - In Touch With Your Feminine Side Tabs

Artists:  A B C D E F G H I J K L M N O P Q R S T U V W X Y Z # 

In Touch With Your Feminine Side Tabs

(ver. 3) Click to play this song!
Alice Cooper
-------------------------------------------------------------------------------
                (In Touch With) Your Feminine Side - Alice Cooper
-------------------------------------------------------------------------------

Tuning:Standard
Intro
e|----------------------------------------------------------|   |
B|----------------------------------------------------------| . |
G|----------------------------------------------------------|   |
D|--------------------------------------------------11-6----|   |
A|-6-6-6/13\6/11/9--6-6-6/13\6/11/9--6-6-6/13\6/11--9--4----| . |
E|-4-4-4/11\4/9-/7--4-4-4/11\4/9-/7--4-4-4/11\4/9-----------|   |

Verse
e|---------------------------|-------------------------------------------|
B|--------------------------.|-------------------------------------------|
G|---------------------------|-------------------------------------------|
D|---------------------------|--6-9-6-11-12------------------------------|
A|--6---6-6--6-6--6-6--4-3--.|--4-7-4-9--10------------------------------|
E|--4---4-4--4-4--4-4--2-1---|-------------------------------------------|

e|----------------------------------------------------------------|
B|----------------------------------------------------------------|
G|--13-13-13--6-6-6--9--11----------------------------------------|
D|--13-13-13--6-6-6--9--11----------------------------------------|
A|--11-11-11--4-4-4--7--9-----------------------------------------|
E|----------------------------------------------------------------|

e|--------------------|-|--------------------------------------------------|
B|-------------------.|.|--------------------------------------------------|
G|7b-7b-7b-7b-7bp5---|-|-6~--2-3-4s8--2s3-5s6-8-7--2s3-5s6-8-7-6-4-4p2-4p2-|
D|-----------------6--|-|---------------------------------------------3---2|
A|-------------------.|.|--------------------------------------------------|
E|--------------------|-|--------------------------------------------------|

e|---------------------7-6b--------1b---------1b------1b---1----|
B|--------7-8b-7-7----7-7-----1-4-1--4--1-4-1---4-1-4-1---1-----|
G|-2-4s8-8-8----8-8-8--------1---------0------------------------|
D|-----------------------------------------------4-------3---3-2|
A|--------------------------------------------------------------|
E|--------------------------------------------------------------|

e|----------------------------------------------------|
B|----------------------------------------------------|
G|-6--9--10-9-99-99-----------------------------------|
D|-6--9--10-99-99-9-----------------------------------|
A|-4--7--8--77-77-7-----------------------------------|
E|----------------------------------------------------|

Last Chorus:
Guitar 1
e|-------------------------------------------------|
B|--------------------------6-7-6--6-7-6-7-6------.|
G|-6-6-65-5h6-6-6--6p4-----------8----------8-6-8--|
D|-8-8-88-----4-4--4----66-------------------------|
A|------------------------------------------------.|
E|-------------------------------------------------|
Guitar 2
e|-----------|------------------------------------------------------------|
B|-----------|------------------------------------------------------------|
G|-----------|---------------13-13-13--6-6-6--9-9-9--11-11-11-------------|
D|-----------|-13~-----------13-13-13--6-6-6--9-9-9--11-11-11-------------|
A|-----------|-11~-----------11-11-11--4-4-4--7-7-7--9--9--9--------------|
E|-----------|------------------------------------------------------------|
Outro
Guitar1
e|-----------------4-2-4-------------------------------------------------|
B|-----------------------------------------------------------------------|
G|-1~-----3p2p1-----------4b-4-4p3p2-4p2h3p2-2-2--1----------------------|
D|--------------------------------------------------4-2-1-4--6~-6~-----6-|
A|-------------------------------------------------------4-------------6-|
E|----------------------------------------------------------------2345-4-|
Guitar 2
e|-4p2~---4p2~---4p2~---4p2~-2-3-4~------|
B|---------------------------------------|
G|---------------------------------------|
D|---------------------------------------|
A|---------------------------------------|
E|---------------------------------------|


| /  slide up
| \  slide down
| h  hammer-on
| p  pull-off
| ~  vibrato
| +  harmonic
| x  Mute note
===============================================================================
            
Submit corrections

↑ Back to top | Tablatures and chords for acoustic guitar and electric guitar, ukulele, drums are parodies/interpretations of the original songs. You may use it for private study, scholarship, research or language learning purposes only