Home » A » Alice Cooper »

Alice Cooper - In Touch With Your Feminine Side Tabs

Artists:  A B C D E F G H I J K L M N O P Q R S T U V W X Y Z # 

In Touch With Your Feminine Side Tabs

(ver. 1) Click to play this song!
Alice Cooper
Keys
b = bend
r = release
\ = slide up neck 
/ = slide down neck
h = hammer-on
p = pull-off
~ = hold note
w = whammy bar
v = vibrato

Note: Eb Tuning (tune each string down a half step)

Intro to the song (not part of the solo I know):
E-------------------------------------------------------------3~~-2~~-|
B-------------------------------------------------------------3~~-3~~-|
G-2-2-2--------------2-2-2--------------2-2-2-----------------0~~-2~~-|
D-2-2-2--------------2-2-2--------------2-2-2-----------------0~~-0~~-|
A-0-0-0-/7-0--3\5-3--0-0-0-/7-0--3\5-3--0-0-0-/7-0--3\5-3--0--2~~-----|
E-------------------------------------------------------------3~~-----|

Solo
Guitar 2 (Jason Hook)
E-----------------------------------------------------------------|
B-----------------------------------------------------------------|
G-7b9~9~9~9~9r7p5----7b9~9~9~9~9r7p5----7b9~9~9~9~9r7p5----5b7~~--|
D-----------------7------------------7------------------7---------|
A-----------------------------------------------------------------|
E-----------------------------------------------------------------|

Guitar 1 (Keri Kelli)
E------------------------------------------------------------|
B--------------------5---------------------5-----------------|
G----5-7-7b9-----5-7---7~v\-----5-7---7--5-----5------7------|
D-/7----------/7-------------/7-------------7----7-4----7----|
A---------------------------------------------------------8--|
E------------------------------------------------------------|

E------------------------------------------------8-----------------|
B-----------------8---8b10~~r8-----8-----------8---8-10b12~~-10~~~-|
G----5-7-7~b9v-/9---9-----------/9---9-9~v--/9---------------------|
D-/7---------------------------------------------------------------|
A------------------------------------------------------------------|
E------------------------------------------------------------------|

Guitar 1 and 2
E---------------------------------------------------------------------|
B---------5---7b8r7-5--------7---7b8r7-5--------5---7b8r7-5-------3---|
G-------5---5--------------7---7--------------5---5-------------2-----|
D-5-/7v----------------6v-----------------5v-----------------4------3-|
A---------------------------------------------------------------------|
E---------------------------------------------------------------------|

E----------|
B----------|
G----2~~~--|
D-2--0~~~--|
A----------|
E----------|
            
Submit corrections

↑ Back to top | Tablatures and chords for acoustic guitar and electric guitar, ukulele, drums are parodies/interpretations of the original songs. You may use it for private study, scholarship, research or language learning purposes only