» » »

Alexisonfire - This Could Be Anywhere Tabs

Artists:  A B C D E F G H I J K L M N O P Q R S T U V W X Y Z # 

This Could Be Anywhere Tabs

(ver. 3) Click to play this song!
Alexisonfire
 Rating:
4/5 (4 votes)

 This Could Be Anywhere lessons Tabs too difficult? Try these video lessons and learn fast
 
                Intro
|----------|---------|----------------|
|----------|---------|----------------|
|----------|---------|----------------|
|---11-11--|--11-11--|--11-11-11------|
|---11-11--|--11-11--|--11-11-11------|
|----9--9--|---9--9--|---9—-9--9------|

Verse
|-----------------|-------------------|-----------------|--------------|
|-----9-----------|----9--------------|--9--------------|--------------|
|-------6-8-9-8-6-|-------6-8-9-11-9-8|-----6-8-9-8-6---|--11-13-14-13-|
|-----------------|-------------------|-----------------|--------------|
|-----------------|-------------------|-----------------|--------------|
|-----------------|-------------------|-----------------|--------------|

|------------------|   
|------------------|   
|------------------|x2 
|---11-11----------|   
|---11-11----------|   
|----9--9----------|

|------10-10-9-9/7-|--4-4-5-5-7--|-----10-10-9-9/7-|-4-4-4-5-12-------|
|----6-------------|-------------|---6-------------|------------------|
|------------------|-------------|-----------------|------------------|
|------------------|-------------|-----------------|------------------|
|------------------|-------------|-----------------|------------------|
|------------------|-------------|-----------------|------------------|

|------------------|   
|------------------|   
|------------------|x2 
|---11-11----------|   
|---11-11----------|   
|----9--9----------|

|-----------------|-------------------|-----------------|--------------|
|-----9-----------|----9--------------|--9--------------|--------------|
|-------6-8-9-8-6-|-------6-8-9-11-9-8|-----6-8-9-8-6---|--11-13-14-13-|
|-----------------|-------------------|-----------------|--------------|
|-----------------|-------------------|-----------------|--------------|
|-----------------|-------------------|-----------------|--------------|

Chorus x2
|-------------------------------------------------|
|-------------------------------------------------|
|-------------------------------------------------|
|----11---11-11-11---11-11-11---11-11---11-11-----|
|----11---11-11-11---11-11-11---11-11---11-11-----|
|-----9----9--9--9----9--9--9----9--9----9--9-----|

|-------------------------------------------------|
|-------------------------------------------------|
|-------------------------------------------------|
|----7---7-7-7---7-7-7---7-7---7-7----------------|
|----7---7-7-7---7-7-7---7-7---5-5----------------|
|----5---5-5-5---5-5-5---5-5---5-5----------------|

|-------------------------------------------------|
|-------------------------------------------------|
|-------------------------------------------------|
|----4---4-4-4---4-4-4---4-4---4-4----------------|
|----4---4-4-4---4-4-4---4-4---4-4----------------|
|----2---2-2-2---2-2-2---2-2---2-2----------------|

|-------------------------------------------------|
|-------------------------------------------------|
|-------------------------------------------------|
|----7-7---7---7-7-7----9-9---9---9-9-9-----------|
|----7-7---7---7-7-7----9-9---9---9-9-9-----------|
|----5-5---5---5-5-5----7-7---7---7-7-7-----------|

Verse 2

|----------------|
|----------------|
|--11-11-11------|
|--11-11-11------|
|---9—-9—-9------|
|----------------|

|-----------------|-------------------|-----------------|--------------|
|-----9-----------|----9--------------|--9--------------|--------------|
|-------6-8-9-8-6-|-------6-8-9-11-9-8|-----6-8-9-8-6---|--11-13-14-13-|
|-----------------|-------------------|-----------------|--------------|
|-----------------|-------------------|-----------------|--------------|
|-----------------|-------------------|-----------------|--------------|

|------------------|   
|------------------|   
|------------------|x2 
|---11-11----------|   
|---11-11----------|   
|----9--9----------|

|------10-10-9-9/7-|--4-4-5-5-7--|-----10-10-9-9/7-|-4-4-4-5-12-------|
|----6-------------|-------------|---6-------------|------------------|
|------------------|-------------|-----------------|------------------|
|------------------|-------------|-----------------|------------------|
|------------------|-------------|-----------------|------------------|
|------------------|-------------|-----------------|------------------|

|------------------|   
|------------------|   
|------------------|x2 
|---11-11----------|   
|---11-11----------|   
|----9--9----------|

|-----------------|-------------------|-----------------|--------------|
|-----9-----------|----9--------------|--9--------------|--------------|
|-------6-8-9-8-6-|-------6-8-9-11-9-8|-----6-8-9-8-6---|--11-13-14-13-|
|-----------------|-------------------|-----------------|--------------|
|-----------------|-------------------|-----------------|--------------|
|-----------------|-------------------|-----------------|--------------|

Chorus x2
|-------------------------------------------------|
|-------------------------------------------------|
|-------------------------------------------------|
|----11---11-11-11---11-11-11---11-11---11-11-----|
|----11---11-11-11---11-11-11---11-11---11-11-----|
|-----9----9--9--9----9--9--9----9--9----9--9-----|

|-------------------------------------------------|
|-------------------------------------------------|
|-------------------------------------------------|
|----7---7-7-7---7-7-7---7-7---7-7----------------|
|----7---7-7-7---7-7-7---7-7---5-5----------------|
|----5---5-5-5---5-5-5---5-5---5-5----------------|

|-------------------------------------------------|
|-------------------------------------------------|
|-------------------------------------------------|
|----4---4-4-4---4-4-4---4-4---4-4----------------|
|----4---4-4-4---4-4-4---4-4---4-4----------------|
|----2---2-2-2---2-2-2---2-2---2-2----------------|

|-------------------------------------------------|
|-------------------------------------------------|
|-------------------------------------------------|
|----7-7---7---7-7-7----9-9---9---9-9-9-----------|
|----7-7---7---7-7-7----9-9---9---9-9-9-----------|
|----5-5---5---5-5-5----7-7---7---7-7-7-----------|

Bridge

|--------------------------------------------------------------------------|
|--------------------------------------------------------------------------|
|--10-7-----12-7--7/10-10-10----10-7---------------------------------------| x2
|--10-7-----12-7--7/10-10-10----10-7--8-8--3-3-----------------------------|
|--8--5-x-x-10-5--5/8--8--8-----8--5--8-8--3-3-----------------------------|
|-------x-x---------------------------8-8--3-3-----------------------------|

|--------------------------------------------------------------------------|
|--------------------------------------------------------------------------|
|--7-7-7-7-7-7-7-7-7-7-7-7-------------------------------------------------| x2
|--7-7-7-7-7-7-7-7-7-7-7-7--8-8-3-3----------------------------------------|
|--5-5-5-5-5-5-5-5-5-5-5-5--8-8-3-3----------------------------------------|
|---------------------------8-8-3-3----------------------------------------|

|--------------------------------------------------------------------------|
|-----------------------------0--------------------------------------------|
|-----------------------------0--------------------------------------------|
|-----------------------------0--------------------------------------------|
|-----------------------------0--------------------------------------------|
|--------------------------------------------------------------------------|

|--------------------------------------------------------------------------|
|--------------------------------------------------------------------------|
|--7-7-7-7-7-7-7-7-7-7-7-7-------------------------------------------------|
|--7-7-7-7-7-7-7-7-7-7-7-7—-8-8-3-3----------------------------------------|
|--5-5-5-5-5-5-5-5-5-5-5-5—-8-8-3-3----------------------------------------|
|---------------------------8-8-3-3----------------------------------------|

|--------------------------------------------------------------------------|
|--------------------------------------------------------------------------|
|--7-7-7-7-7-7-7-7---------------------------------------------------------|
|--7-7-7-7-7-7-7-7---------------------------------------------------------|
|--5-5-5-5-5-5-5-5---------------------------------------------------------|
|--------------------------------------------------------------------------|

chorus x2
|-------------------------------------------------|
|-------------------------------------------------|
|-------------------------------------------------|
|----11---11-11-11---11-11-11---11-11---11-11-----|
|----11---11-11-11---11-11-11---11-11---11-11-----|
|-----9----9--9--9----9--9--9----9--9----9--9-----|

|-------------------------------------------------|
|-------------------------------------------------|
|-------------------------------------------------|
|----7---7-7-7---7-7-7---7-7---7-7----------------|
|----7---7-7-7---7-7-7---7-7---5-5----------------|
|----5---5-5-5---5-5-5---5-5---5-5----------------|

|-------------------------------------------------|
|-------------------------------------------------|
|-------------------------------------------------|
|----4---4-4-4---4-4-4---4-4---4-4----------------|
|----4---4-4-4---4-4-4---4-4---4-4----------------|
|----2---2-2-2---2-2-2---2-2---2-2----------------|

|-------------------------------------------------|
|-------------------------------------------------|
|-------------------------------------------------|
|----7-7---7---7-7-7----9-9---9---9-9-9-----------|
|----7-7---7---7-7-7----9-9---9---9-9-9-----------|
|----5-5---5---5-5-5----7-7---7---7-7-7-----------|
            
Submit corrections


        This Could Be Anywhere lessons Hard to play? Try these video lessons and learn fast This Could Be Anywhere lessons
        
↑ Back to top | Tablatures and chords for acoustic guitar and electric guitar, ukulele, drums are parodies/interpretations of the original songs. You may use it for private study, scholarship, research or language learning purposes only