Home » A » Alexisonfire »

Alexisonfire - Sharks And Danger Bass

Artists:  A B C D E F G H I J K L M N O P Q R S T U V W X Y Z # 

Sharks And Danger Bass

(ver. 1) Click to play this song!
Alexisonfire
 Rating:
4/5 (4 votes)
                Sharks and Danger by Alexisonfire.


I've tried to separate every little phrase into a box of its own... Hopefully you know 
I mean.
This is based on the unregistered person's first version of the tab, with bits that I 
and stuff. I hope it's okay.


In standard tuning (or whatever sorry excuse for standard tuning my bass is in, lol).

 (0:13)
G|---------6----------------------|
D|--------6--8--6h8p6-------------|
A|--4h6p4------------8-----6------|
E|2--------------------6p4--4-2~--|

  (0:19)
G|-----------------------6----------------------|
D|6h8p6-----------------6--8--6h8p6-------------|
A|-----8-----6----4h6p4------------8-----6------|
E|-------6p4---4-2-------------------6p4--4-2~--|

  (0:28)(0:38)
G|----------------------------------------------|
D|6h8p6------------------6----6h8p6-------------|
A|-----8-----6----4h6p4-6--8-------8-----6------|
E|-------6p4---4-2-------------------6p4--4-2~--|

(0:38)
G|-----------------------6----------------------|
D|6h8p6-----------------6--8--6h8p6-------------|
A|-----8-----6----4h6p4------------8-----6------|
E|-------6p4---4-2-------------------6p4--4-2~--|

  (o:46)
G|----------------|
D|----------------|
A|----------------| x4
E|--/6~----\2~----|


  (1:05)                               (1:23)          (1:59)
G|---------------------------|       G|-----|        G|------------|
D|---------------------------|       D|-----|        D|------------|
A|---------------------------| x4    A|-----| x16    A|------------| x16
E|666666-444444-222222222222-|       E|6-6-6|        E|666666666666|


  (2:40)
G|--------------------------------------------|
D|--------------------------------------------|
A|----55----55----55----55--------------------| x4
E|6-----6-----6-----6-----22222222222222222222|


  (3:13)
G|----------------------------------|
D|----------------------------------|
A|----------------------------------|
E|6-6-6-6-2-2-2-2-6-6-6-6-2-2-2-2-6~|

  (3:32)          (3:34)
G|-----------|  G|----------------------|
D|-----------|  D|----------------------|
A|-----------|  A|----------------------| x8
E|22222-22222|  E|66666-44444-2222222222|


 /   slide up
 \   slide down
 h   hammer-on
 p   pull-off

I hope it serves you well :)
            
Submit corrections

↑ Back to top | Tablatures and chords for acoustic guitar and electric guitar, ukulele, drums are parodies/interpretations of the original songs. You may use it for private study, scholarship, research or language learning purposes only