» » »

Alexisonfire - Keep It On Wax Tabs

Artists:  A B C D E F G H I J K L M N O P Q R S T U V W X Y Z # 

Keep It On Wax Tabs

(ver. 1) Click to play this song!
Alexisonfire
 Rating:
4/5 (4 votes)

 Keep It On Wax lessons Tabs too difficult? Try these video lessons and learn fast
 
                Drop D


Intro:
e:----------------------------------------------|
b:----------------------------------------------|
g:11-11-11---12-11-11-11---12-11-11-11---12-11--|
d:-9--9--9----9--9--9--9----9--9--9--9----9--9--|
a:----------------------------------------------|
d:----------------------------------------------|

e:----------------------------------------------------------------|
b:----------------------------------------------------------------|
g:----------------------------------------------------------------|    x2
d:----0--2--4--4/5--4-----0--2/7--5--4--5--2----/7--5--4--5-----0-|
a:-2-------------------2-------------------------------------2----|
d:----------------------------------------------------------------|

I, I guess.. the only thing cheap to you is your friends
e:----------------------------------------------|
b:----------------------------------------------|
g:-11--11-11---11-11-11-11-11-11-11-11-12-------|
d:--x---x--x----x--x--x--x--x--x--x--x--x-------|
a:--9---9--9----9--9--9--9--9--9--9--9--9-------|
d:----------------------------------------------|

e:------------------|
b:------------------|
g:------------------|    x2
d:--5-5-5-5-5-5-5-5-|
a:--5-5-5-5-5-5-5-5-|
d:--5-5-5-5-5-5-5-5-|

Chorus
e:----------------|
b:----------------|
g:----------------|
d:--9---2---5-----|
a:--9---2---5-----|
d:--9---2---5-----|

e:---------0--2--2/3/2---------0/5--3/2/3/2/0--15/14--15/14--|
b:---0--3----------------0--3--------------------------------|
g:-----------------------------------------------------------|
d:-----------------------------------------------------------|
a:-----------------------------------------------------------|
d:-----------------------------------------------------------|

Kick, kick, kick..
e:-------------|
b:-------------|
g:-------------|  x8
d:----9-9-9----|
a:----9-9-9----|
d:----9-9-9----|
            
Submit corrections


        Keep It On Wax lessons Hard to play? Try these video lessons and learn fast Keep It On Wax lessons
        
↑ Back to top | Tablatures and chords for acoustic guitar and electric guitar, ukulele, drums are parodies/interpretations of the original songs. You may use it for private study, scholarship, research or language learning purposes only