» » »

Alexisonfire - Crisis Tabs

Artists:  A B C D E F G H I J K L M N O P Q R S T U V W X Y Z # 

Crisis Tabs

(ver. 1) Click to play this song!
Alexisonfire
 Rating:
4.4/5 (7 votes)

 Crisis lessons Tabs too difficult? Try these video lessons and learn fast
 
                Tuning: Half step down, then drop D.


Intro

(Guitar 1)
|-----------------------------------------------------------------------|
|-3h555-5br--3h555-5br--3h55--------------------------------------------|
|-----------------------(each 4 times theres 55555555 with a light bend)|
|-----------------------------------------------------------------------|
|-----------------------------------------------------------------------|
|-----------------------------------------------------------------------|

(Guitar 2)
|-----------------------------------------------------------------------|
|-----------------------------------------------------------------------|
|----------------------------------------(this on 4th time)-------------|
|--------------------2--------------------33333-555555------------------|
|--------------------2--------------------33333-555555------------------|
|--------------------2--------------------33333-555555------------------|


Intro (part 2)

|-----------------------------------------------------------------------|
|-----------------------------------------------------------------------|
|----------------------------------(then on 4th time)-------------------|
|-0h2222-0h2222-0h22-(x4)-----------33333-555555------------------------|
|-0h2222-0h2222-0h22----------------33333-555555------------------------|
|-0h2222-0h2222-0h22----------------33333-555555------------------------|


Verse

|-----------------------------------------------------------------------|
|-3h555-5br--3h555-5br--3h55-(x4)-- (then)------------------------------|
|-----------------------------------------------------------------------|
|--------------------------------333333333333---------------------------|
|--------------------------------333333333333---------------------------|
|--------------------------------333333333333---------------------------|


Verse (part 2)

|-----------------------------------------------------------------------|
|-----------------------------------------------------------------------|
|----------------------------------(then on 4th time)-------------------|
|-0h2222-0h2222-0h22-(x4)-----------33333-555555------------------------|
|-0h2222-0h2222-0h22----------------33333-555555------------------------|
|-0h2222-0h2222-0h22----------------33333-555555------------------------|

(pause)

Verse

Guitar 1
|-----------------------------------------------------------------------|
|-3h555-5br--3h555-5br--3h55-(x4)----(then)-----------------------------|
|-----------------------------------------------------------------------|
|--------------------------------333333333333---------------------------|
|--------------------------------333333333333---------------------------|
|--------------------------------333333333333---------------------------|

Guitar 2
|-----------------------------------------------------------------------|
|----------------------------------(play a few times)-------------------|
|-----------------------------------------------------------------------|
|-3333p22----------0000h22-------3333p22--------------------------------|
|-----------------------------------------------------------------------|
|-----------------------------------------------------------------------|


Chorus (2 guitars)

Guitar 1
|-----------------------------------------------------------------------|
|-----------------------------------------------------------------------|
|-----------------------------------------------------------------------|
|-333333333333-000000000000-777777777777-555555555555-------------------|
|-333333333333-000000000000-777777777777-555555555555-------------------|
|-333333333333-000000000000-777777777777-555555555555-------------------|

Guitar 2
|-----------------------------------------------------------------------|
|-----------------------------------------------------------------------|
|-----9------9--7---7h9-9-------12--9--7--------------------------------|
|--7------7----------------7-10-----------------------------------------|
|-----------------------------------------------------------------------|
|-----------------------------------------------------------------------|

then

Guitar 1
|-----------------------------------------------------------------------|
|-----------------------------------------------------------------------|
|-----------------------------------------------------------------------|
|-333333333333-000000000000-777777777777-666666666666-------------------|
|-333333333333-000000000000-777777777777-666666666666-------------------|
|-333333333333-000000000000-777777777777-666666666666-------------------|

Guitar 2
|-----------------------------------------------------------------------|
|-----------------------------------------------------------------------|
|-7h9-99-----------------99999999999999-xx9xx9-9999999-88888888888888---|
|--------xx7xx7~---------xxxxxxxxxxxxxx-xxxxxx-xxxxxxx-xxxxxxxxxxxxxx---|
|--------xx7xx7~---------77777777777777-xx7xx7-7777777-66666666666666---|
|--------xx7xx7~--------------------------------------------------------|


(Fill)

(Guitar 1)
|-----------------------------------------------------------------------|
|-3h555-5br--3h555-5br--3h55--------------------------------------------|
|-----------------------(each 4 times theres 55555555 with a light bend)|
|-----------------------------------------------------------------------|
|-----------------------------------------------------------------------|
|-----------------------------------------------------------------------|

(Guitar 2)
|-----------------------------------------------------------------------|
|-----------------------------------------------------------------------|
|----------------------------------------(this on 4th time)-------------|
|--------------------2--------------------33333-555555------------------|
|--------------------2--------------------33333-555555------------------|
|--------------------2--------------------33333-555555------------------|


Verse

|-----------------------------------------------------------------------|
|-----------------------------------------------------------------------|
|----------------------------------(then on 4th time)-------------------|
|-0h2222-0h2222-0h22-(x4)-----------33333-555555------------------------|
|-0h2222-0h2222-0h22----------------33333-555555------------------------|
|-0h2222-0h2222-0h22----------------33333-555555------------------------|


Chorus (2 guitars)

Guitar 1
|-----------------------------------------------------------------------|
|-----------------------------------------------------------------------|
|-----------------------------------------------------------------------|
|-333333333333-000000000000-777777777777-555555555555-------------------|
|-333333333333-000000000000-777777777777-555555555555-------------------|
|-333333333333-000000000000-777777777777-555555555555-------------------|

Guitar 2
|-----------------------------------------------------------------------|
|-----------------------------------------------------------------------|
|-----9------9--7---7h9-9-------12--9--7--------------------------------|
|--7------7----------------7-10-----------------------------------------|
|-----------------------------------------------------------------------|
|-----------------------------------------------------------------------|

then

Guitar 1
|-----------------------------------------------------------------------|
|-----------------------------------------------------------------------|
|-----------------------------------------------------------------------|
|-333333333333-000000000000-777777777777-666666666666-------------------|
|-333333333333-000000000000-777777777777-666666666666-------------------|
|-333333333333-000000000000-777777777777-666666666666-------------------|

Guitar 2
|-----------------------------------------------------------------------|
|-----------------------------------------------------------------------|
|-7h9-99-----------------99999999999999-xx9xx9-9999999-88888888888888---|
|--------xx7xx7~---------xxxxxxxxxxxxxx-xxxxxx-xxxxxxx-xxxxxxxxxxxxxx---|
|--------xx7xx7~---------77777777777777-xx7xx7-7777777-66666666666666---|
|--------xx7xx7~--------------------------------------------------------|


Then with slight alternation

Guitar 1
|-----------------------------------------------------------------------|
|-----------------------------------------------------------------------|
|-----------------------------------------------------------------------|
|-3-0-333333333-000000000000-777777777777-555555555555------------------|
|-3-0-333333333-000000000000-777777777777-555555555555------------------|
|-3-0-333333333-000000000000-777777777777-555555555555------------------|

Guitar 2
|-----------------------------------------------------------------------|
|-----------------------------------------------------------------------|
|-----9------9--7---7h9-9-------12--9--7--------------------------------|
|--7------7----------------7-10-----------------------------------------|
|-----------------------------------------------------------------------|
|-----------------------------------------------------------------------|

then

Guitar 1
|-----------------------------------------------------------------------|
|-----------------------------------------------------------------------|
|-----------------------------------------------------------------------|
|-3-0-333333333-000000000000-777777777777-666666666666------------------|
|-3-0-333333333-000000000000-777777777777-666666666666------------------|
|-3-0-333333333-000000000000-777777777777-666666666666------------------|

Guitar 2
|-----------------------------------------------------------------------|
|-----------------------------------------------------------------------|
|-7h9-99-----------------99999999999999-xx9xx9-9999999-88888888888888---|
|--------xx7xx7~---------xxxxxxxxxxxxxx-xxxxxx-xxxxxxx-xxxxxxxxxxxxxx---|
|--------xx7xx7~---------77777777777777-xx7xx7-7777777-66666666666666---|
|--------xx7xx7~--------------------------------------------------------|


Outro

Guitar 1
|-----------------------------------------------------------------------|
|-----------------------------------------------------------------------|
|-----------------------------------------------------------------------|
|-3-0-3~----------------------------------------------------------------|
|-3-0-3~----------------------------------------------------------------|
|-3-0-3~----------------------------------------------------------------|

Guitar 2
|-----------------------------------------------------------------------|
|-----------------------------------------------------------------------|
|-9-7-------------------------------------------------------------------|
|-----7-----------------------------------------------------------------|
|-----------------------------------------------------------------------|
|-----------------------------------------------------------------------|
            
Submit corrections


        Crisis lessons Hard to play? Try these video lessons and learn fast Crisis lessons
        
↑ Back to top | Tablatures and chords for acoustic guitar and electric guitar, ukulele, drums are parodies/interpretations of the original songs. You may use it for private study, scholarship, research or language learning purposes only