Home » A » Alexisonfire »

Alexisonfire - Counter Parts And Number Them Tabs

Artists:  A B C D E F G H I J K L M N O P Q R S T U V W X Y Z # 

Counter Parts And Number Them Tabs

(ver. 1) Click to play this song!
Alexisonfire
 Rating:
4/5 (4 votes)
                this is all just for one guitar but with this you can figure out what the other one plays


Intro:

-----5-----4-----2-----5--------------------------------------------
-0-7---0-5---0-3---0-2------------(play 8 times)--------------------

Chords into verse:

-9--11--12----------------------------------------------------------
-x---x---x----------------------------------------------------------
-7---9--10----------------------------------------------------------
-0---0---0----------------------------------------------------------

Verse:

-----4-5-7-5-4-------4-5-7-5-4--------------------------------------
-3-7-----------5-3-7-----------5---(play a bunch of times)----------

Chorus:

-5-5-5-5-5-5-5-5/9-9-9-9-9-9-9--------------------------------------
-x-x-x-x-x-x-x-x-x-x-x-x-x-x-x--------------------------------------
-3-3-3-3-3-3-3-7-7-7-7-7-7-7-7--------------------------------------

First interlude part:

-2-2-2-2-2---2-2-2-2-2--2-------------------------------------------
-2-2-2-2-2---2-2-2-2-2--2-------------------------------------------
-0-0-0-0-0---0-0-0-0-0--0-------------------------------------------

still working on the rest
this is alot better than the other tab for this song 
(i think hes on crack) 
just kidding 
if im feeling nice ill post it
            
Submit corrections

↑ Back to top | Tablatures and chords for acoustic guitar and electric guitar, ukulele, drums are parodies/interpretations of the original songs. You may use it for private study, scholarship, research or language learning purposes only