» » »

Alexisonfire - 44 Calliber Love Letter Tabs

Artists:  A B C D E F G H I J K L M N O P Q R S T U V W X Y Z # 

44 Calliber Love Letter Tabs

(ver. 2) Click to play this song!
Alexisonfire
 Rating:
4/5 (4 votes)

 44 Calliber Love Letter lessons Tabs too difficult? Try these video lessons and learn fast
 
                (Intro)
Band: Alexisonfire

This is my first tab, i made it due to the lack of alexisonfire tabs out there
and because most of them are brutal. As far as i know, there arn't any mistakes,
however there may be errors when i transcribed the tab.

**Note: To better understand the tabs, switch the volume of your speaker either
ot the LEFT OR THE RIGHT. This will really help you out in seperating the 2
sounds.

Guitar 1 = LEFT
Guitar 2 = RIGHT

Tuning: D# G# C# F# A# d#

INTRO

Guitar 1

Figure [1] at 0:00 to 1:07 (Played 34x)

d# |-------------------|
a# |-------------------|
f# |--------------16---|
c# |-----17---/14------|
g# |--15---------------|
D# |-------------------|

Guitar 1 

Figure [2] at 1:07 to 1:16 (Played 4x)

d# |--------------------|
a# |--------------------|
f# |-----17--16---------|
c# |------------12/14---|
g# |--15----------------|
D# |--------------------|

Guitar 1 

Figure [3] at 1:16 to 1:26 (Played 3x)         This section only is played 
                                                 the last time (1x)
d# |----------------------------------------|   |-------------------|      
a# |----------------------------------------|   |-------------------|      
f# |-------------16------16------17p16------|   |-------------16~~--|      
c# |-----17----------------------------17---|   |-----17------------|
g# |--15----1515----15------15--------------|   |--15----1515-------|      
D# |----------------------------------------|   |-------------------|

Entry Guitar 2

Figure [1] at 0:11 to 0:33 (Played 4x)

d# |--17-----------------------------------|
a# |------------15---15h17-----------------|                    
f# |-----16--17------------16-17---*(16)---|   *play softly 
c# |---------------------------------------|
g# |---------------------------------------|
D# |---------------------------------------|

Guitar 2 

Figure [2] at 0:33 to 0:44 (Played 4x)

d# |----------------------|
a# |----------------------|
f# |--16--17--16h17--19---|
c# |----------------------|
g# |----------------------|
D# |----------------------|

Guitar 2 

Repeat Figure [1] at 0:44 to 0:56 (Played 1x)

d# |--17-----------------------------------|
a# |------------15---15h17-----------------|                    
f# |-----16--17------------16-17---*(16)---|   *sustain note until 0:56 
c# |---------------------------------------|
g# |---------------------------------------|
D# |---------------------------------------|

Guitar 2 

Figure [3] 0:56 to 1:04

d# |-------------*(/3)---|      *only include last time this is played
a# |---------------------|      
f# |---------------------|      
c# |--2/7—7—7—7----------|      
g# |--2/7—7—7—7----------|      
D# |--0/5—5—5—5----------|        

Guitar 2 at 1:04 to 1:26 (Played 4x)

Figure [4]

d# |------------1717--------------------|      
a# |------------------------------------|      
f# |-----------------1616—1717—19--17---|     
c# |--2/7—7—7—7-------------------------|      
g# |--2/7—7—7—7-------------------------|      
D# |--0/5—5—5—5-------------------------| 

d# |--------------1717----------------------------------|
a# |---------------------------15—17—15---17p15---------|
f# |--------------------16--17------------------17—16---|
c# |--2/7—7—7—7-----------------------------------------|      
g# |--2/7—7—7—7-----------------------------------------|      
D# |--0/5—5—5—5-----------------------------------------| 
   
The last time you play

d# |----------------/15151515--------|      
a# |---------------------------------|      
f# |---------------------------------|      
c# |--2/7—7—7—7----------------------|      
g# |--2/7—7—7—7----------------------|      
D# |--0/5—5—5—5----------------------|

Guitar 2

Figure [5] at 1:26 to 1:47 (Played 8x)

d# |----------------------------------------------|      
a# |-----------15h17p15----15----15----13----13---|      
f# |--------------------17----17----16----16------|      
c# |--7—7—7—7-------------------------------------|      
g# |--7—7—7—7-------------------------------------|      
D# |--5-5-5-5-------------------------------------|   

Guitar 2

Figure [6] at 1:47 to 1:55 (Played 1x)

d# |-----------------------------------|      
a# |-----------------------------------|      
f# |-----------------------------------|      
c# |--7—7—7—7--12h14p12--10--9/10/12---|      
g# |--7—7—7—7--------------------------|        
D# |--5-5-5-5--------------------------|    

This one of the best intro's i've ever heard for a song. I'll be comin out
with the rest of the song soon but it aint exactly the easiest to tab. 

For any questions, comments or corrections
            
Submit corrections


        44 Calliber Love Letter lessons Hard to play? Try these video lessons and learn fast 44 Calliber Love Letter lessons
        
↑ Back to top | Tablatures and chords for acoustic guitar and electric guitar, ukulele, drums are parodies/interpretations of the original songs. You may use it for private study, scholarship, research or language learning purposes only