» » »

Alan Jackson - Pop A Top Tabs

Artists:  A B C D E F G H I J K L M N O P Q R S T U V W X Y Z # 

Pop A Top Tabs

(ver. 3) Click to play this song!
Alan Jackson
 Rating:
4/5 (4 votes)

 Pop A Top lessons Tabs too difficult? Try these video lessons and learn fast
 
                Intro:
E--7---7-----3------------------------
B----8---8\3---3---3------------------
G----------------4---4----------------
D----------------------5-2-0----------
A-------------------------------------
E-------------------------------------

Solo:	

E------------------------------------- 
B----------------------------/5------- 
G--------------2---0-5p4p3-4----5----- 
D--------2---0---4----------------5--- 
A--3p1-2---4------------------------7- 
E------------------------------------- 

E--------------------12---------------------
B-----------------13----15-------15---------
G--------------15----------14b16----16b14-12
D-----10-14b16------------------------------
A-/12---------------------------------------
E-------------------------------------------

E--13--------------------------------------- 
B--12--------(8)-(8)------8-8----8---------- 
G--12b14-12---------10b12-----/9---\7-5---5- 
D---------------------------------------7--- 
A------------------------------------------- 
E------------------------------------------- 


E---------------------
B-------7---pb9rp8p7-8
G--5/7----7-----------
D------7--------------
A---------------------
E---------------------

E7p3-----7p3-----3/4------------------------------
B----3-------3-------5----------------------------
G------4-------4-------4--------------------------
D------------------------7-/6---0---------2-------
A-----------------------------7---2-0-------2b4r-0
E-------------------------------------3h4---------
            
Submit corrections


        Pop A Top lessons Hard to play? Try these video lessons and learn fast Pop A Top lessons
        
↑ Back to top | Tablatures and chords for acoustic guitar and electric guitar, ukulele, drums are parodies/interpretations of the original songs. You may use it for private study, scholarship, research or language learning purposes only