» » »

Alan Jackson - Pop A Top Tabs

Artists:  A B C D E F G H I J K L M N O P Q R S T U V W X Y Z # 

Pop A Top Tabs

(ver. 2) Click to play this song!
Alan Jackson
 Rating:
4/5 (4 votes)

 Pop A Top lessons Tabs too difficult? Try these video lessons and learn fast
 
                
INTRO
   _____    _____    _____    _____
  |  |  |  |  |  |  |  |  |  |  |  |   |
  |  |  |  |  |  |  |  |  |  |  |  |   |
|-7-----7--3-----3-------------------|-------------------------------|
|----8---\----3-----3-----3----------|-------------------------------|
|---------S------------4-----4-------|-------------------------------|
|-------------------------------5--2-|-------------------------------|
|------------------------------------|-5-----------------------------|
|------------------------------------|-------------------------------|



SOLO (CD = 1:38)
   _____    _____    _____      _____       __    __
  |  |  |  |  |  |  |  |  |    |  |  |     |  |  |  |   |          |\
  |  |  |  |  |  |  |  |  |  |\|  |  |   |\|  |  |  |   |    /|    |
|--------------------------------------|-----------------------------|
|--------------------------------------|-3-5-------------------------|
|-------------------2--------5-4--3--4-|--\/--5----------------------|
|----------2-----------4--5---\/-------|---S-----5-------------------|
|-3--1--2-----4--5-------------P-------|------------7--(7)---------7-|
|--------------------------------------|-------------\/-------------/|
                                                      T

    ___    ____      ___     __       ____      ____      ____
   |   |  |    |    |   |   |  |     |    |    |    |    |    |   |
   |   |  |    |    |   |   |  |     |    |    |    |    |    |   |
|-----------------------8--12--8--|-10-------------10----------------|
|------------------10-------------|------10--(12)------(12)--10---8--|
|---------9--(11)-----------------|---------\/-------------\/--------|
|-----10----\/--------------------|---------B---------------R--------|
|-12---------B--------------------|----------------------------------|
|-/-------------------------------|----------------------------------|
  S


           ___     __     ___    ___     _____      _____
    __    |   |   |  |   |   |  |   |   |  |  |    |  |  |  |      |\
   |--|   |   |   |  |   |   |  |   |   |  |  |  |\|  |  |  |  /|  |
|-13----------------------------------|------------------------------|
|----15-------------------------8---8-|-------8----------------------|
|-------(16)-14--12--x--10-(12)-------|-7--9-----9-7--5-----5------5-|
|----------\/-------------\/----------|--\/-------\/-----7----------/|
|-----------R--------------B----------|---S--------S-----------------|
|-------------------------------------|------------------------------|



   ___    ___            ___       ____    _____    _____    _____
  |   |  |   |   |      |   |     |    |  |  |  |  |  |  |  |  |  |
  |   |  |   |   |      |   |     |    |  |  |  |  |  |  |  |  |  |
|------------------------------|-------7-----------7-----------4-----|
|--------7------10------7---8--|-(8)------8-----------8-------/---5--|
|-7----------7----\-----------\|-/-----------7-----------7----S------|
|/----7-----------S------------|T---------------9-----------9--------|
|-S----------------------------|-------------------------------------|
|------------------------------|-------------------------------------|



   ______    _____    _____    _____
  |  |   |  |  |  |  |  |  |  |  |  |   |
  |  | |\|  |  |  |  |  |  |  |  |  |   |
|-------------------------------------|------------------------------|
|-------------------------------------|------------------------------|
|-4-----------------------------------|------------------------------|
|----7-5-6--2-----------------2-------|------------------------------|
|-------\/-----5--2-------------(3)-2-|-0----------------------------|
|--------H-----------5--3--4------\/--|------------------------------|
                         \/        R
            
Submit corrections


        Pop A Top lessons Hard to play? Try these video lessons and learn fast Pop A Top lessons
        
↑ Back to top | Tablatures and chords for acoustic guitar and electric guitar, ukulele, drums are parodies/interpretations of the original songs. You may use it for private study, scholarship, research or language learning purposes only