» » »

Alan Jackson - Just Playin' Possum Tabs

Artists:  A B C D E F G H I J K L M N O P Q R S T U V W X Y Z # 

Just Playin' Possum Tabs

(ver. 2) Click to play this song!
Alan Jackson
 Rating:
4/5 (4 votes)

 Just Playin' Possum lessons Tabs too difficult? Try these video lessons and learn fast
 
                "(1)


e-----------------------------------------------------------
b-----------------------------------------------------------
g----------2---4b--4br---2----------------------------------
d--2---4--------------------4b--4br--2----4---2--------2----
a-------------------------------------------------2/4----2b-
e--------------------------------------------------------




e-----------------------------------------------------------
b-----------------------------------------------------------
g-----------------------------------------------------------
d--------------------2--------------------------------------
a--0--------0--2/4-------2br----0---------------------------
e-----0--2--------------------------------------------------








"            
Submit corrections


        Just Playin' Possum lessons Hard to play? Try these video lessons and learn fast Just Playin' Possum lessons
        
↑ Back to top | Tablatures and chords for acoustic guitar and electric guitar, ukulele, drums are parodies/interpretations of the original songs. You may use it for private study, scholarship, research or language learning purposes only