» » »

Alan Jackson - Just Playin' Possum Tabs

Artists:  A B C D E F G H I J K L M N O P Q R S T U V W X Y Z # 

Just Playin' Possum Tabs

(ver. 1) Click to play this song!
Alan Jackson
 Rating:
4/5 (4 votes)

 Just Playin' Possum lessons Tabs too difficult? Try these video lessons and learn fast
 
                I hope this one comes out better, this is my second time to do this
this is the way i play this with the band, it sounds pretty close.


b-bend  h-hammer on
p-pull off  /-slide up
\-slide down
bh-bend hold rb-release bend


	
	E---------------------3--------------------------
	B----------------------------5-----------------
	G------------------2----4bh----4rb--2-----------
	D------------2--4-------------------------------
	A--2p0---2/4------------------------------------
	E-----------------------------------------------
	
	
	E--------------------------------------------------
	B--------------------------------------10-------10-
	G------2-----------------------------7----9br----7-
	D--2/4----2br--0------0--------7--9----------------
	A----------------4/5----5--7/9---------------------
	E--------------------------------------------------
	

	E----------------------------------------------
	B----------------------------------------------
	G----------------------------------------------
	D--4b[5]--2------------------------2-----------
	A------------4b[5]--2----------2/4---2br-0-----
	E---------------------2b[3]--0-----------------
	

         
            
Submit corrections


        Just Playin' Possum lessons Hard to play? Try these video lessons and learn fast Just Playin' Possum lessons
        
↑ Back to top | Tablatures and chords for acoustic guitar and electric guitar, ukulele, drums are parodies/interpretations of the original songs. You may use it for private study, scholarship, research or language learning purposes only