» » »

Alan Jackson - I Don't Even Know Your Name Tabs

Artists:  A B C D E F G H I J K L M N O P Q R S T U V W X Y Z # 

I Don't Even Know Your Name Tabs

(ver. 2) Click to play this song!
Alan Jackson
 Rating:
4/5 (4 votes)

 I  Don't Even Know Your Name lessons Tabs too difficult? Try these video lessons and learn fast
 
                "(Solo3)
I Don’t Even Know Your Name (Alan Jackson)

This is a classic Brent Mason solo.  The lick at the
beginning is crazy, but if you can get through that the
rest is easy.  A soundbyte is included to help you get
through it.  By the way, this is the second electric solo
on the song (last solo of the song).  Enjoy!


SUBMITTED FOR countrytabs.net ONLY!  DO NOT REPRODUCE!

-0--0----------0----------0-----------0----------0---------
---14--12------11/12------10-------------------------------
-----------14---------13------12------11/12------11--------
----------------------------------14---------14------12----
-----------------------------------------------------------
-----------------------------------------------------------




-0------0-----0---------------------------
------------------------------------------
-9------7-----5h6-------------------------
----11-----9-------7--5-------------------
-------------------------7--6--5--0--3b---
------------------------------------------




-----------------------------------------------------------
-----------------------------------------------------------
-----------------------------------------------------------
----2-----0-----------2-----0----------0------2----0-------
-------------2p0---------------2p0-------------------2p0---
-0-----0----------3b-----3----------3-----3b----0---------0




----------------|-----------------------------|------------
------5---------|-2---2----------2---0--------|-2------0---
----------------|-0---0----------2---0--------|-2------0---
-4/6--------2/4-|---4----4p2--4----4---4p2--4-|---0h4------
----------------|-----------------------------|------------
----------------|-----------------------------|------------
                 Repeat this section once.



----3p2p1--------------------------------------------------
-0---------3p2p1-------------------------------------------
------------------4p2p0------------------------------------
-------------------------4p2p0-----------------------------
--------------------------------2-1p0------0--1--0--1/2----
--------------------------------------3/4------------------



                       E69 (for those who care)

-----------------------12------------
-----------------------12------------
-----------------------11------------
-----------------------11------------
-1/2--1/2--0-------------------------
--------------2br--0-----------------


There you have it.  This one is tough.  As usual my
Soundbyte includes a half speed version.  This one 
really takes some patience to get.  I would suggest
getting a metronome and start at a slow speed.  Gradually
work your way up (over a course of hours if necessary).
This is a good method for learning any tough lick.  Time
to get busy.  Good luck!


"            
Submit corrections


        I  Don't Even Know Your Name lessons Hard to play? Try these video lessons and learn fast I  Don't Even Know Your Name lessons
        
↑ Back to top | Tablatures and chords for acoustic guitar and electric guitar, ukulele, drums are parodies/interpretations of the original songs. You may use it for private study, scholarship, research or language learning purposes only