» » »

Alan Jackson - I Don't Even Know Your Name Tabs

Artists:  A B C D E F G H I J K L M N O P Q R S T U V W X Y Z # 

I Don't Even Know Your Name Tabs

(ver. 1) Click to play this song!
Alan Jackson
 Rating:
4/5 (4 votes)

 I  Don't Even Know Your Name lessons Tabs too difficult? Try these video lessons and learn fast
 
                "(1)
(Solo)
(Correct)
This isn’t necessarily a tab correction.  The original was close.  I am
submitting this mostly for sound bytes to help folks learn how to play.
I have also made a few corrections from the original.
This solo is fast, but much easier to play than the last solo of the 
song.  As always, I have included a half speed version as well.  Good
luck!


SUBMITTED FOR countrytabs.net ONLY!  DO NOT REPRODUCE!

-------------------------------------5----5---------------------
------------------------2-3--0----7----8b----b8r--5-------------
---------------1/2-3/4-----------------------------8\7--5-------
-------1-2-3-4---------------------------------------------7\5--
-0-3/4----------------------------------------------------------
----------------------------------------------------------------




------12-10---------------------------------------------------
-------------b12rp10------------------------------------------
-11b-----------------12\11p9------9\7----7--------------------
------------------------------11-------9----9-8-7---5h6-------
--------------------------------------------------7------7--5-
--------------------------------------------------------------




------------------------------------------------------------
--------------------------2----0-------5p0----7-------------
--------------------------2----0-------6p0----7-------------
----------------------------------5/7------0----------------
-------------------0--2/4---4-------------------------------
-7-6-5-0--3b------------------------------------------------




--------------------------------------------------
----2p0-----0-------------------------------------
----2p0-----0-------------------------------------
-0-------2-----2-1p0-------2----------------------
----------------------3/4-----3--0--2br--0--------
--------------------------------------------------




-----------------------------------------7--------0-0-0-0-0-0-0-
--------------------------------------------7b--5---5-3---3-2-0-
------------------------4--456--6br--4--------------------------
------------------2--456----------------------------------------
----------2--234------------------------------------------------
--0--234--------------------------------------------------------




-3/4--0--2p0-----------------------------------
-4/5--0--3p0-----------------------------------
-------------3-2p0-----------------------------
--------------------2p0------------------------
-------------------------2-1p0-----------------
--------------------------------2br-2br--0-----


There it is.  I just hope I tabbed and played it the same.  The tab is
correct.  I just hope I played exactly what I have tabbed.  Good luck.

"            
Submit corrections


        I  Don't Even Know Your Name lessons Hard to play? Try these video lessons and learn fast I  Don't Even Know Your Name lessons
        
↑ Back to top | Tablatures and chords for acoustic guitar and electric guitar, ukulele, drums are parodies/interpretations of the original songs. You may use it for private study, scholarship, research or language learning purposes only