Home » A » Alain Johannes »

Alain Johannes - Spider Tabs

Artists:  A B C D E F G H I J K L M N O P Q R S T U V W X Y Z # 

Spider Tabs

(ver. 1) Click to play this song!
Alain Johannes
*this is transposed from an 8 string cigar box guitar to a 6 string acoustic guitar. 
this is a SIMPLIFIED version of this song. the octaves are lower for convenience. 

Tuning: EADGbe

 VERSE

e|-------------------------------------------------|
b|----10----10----10-------------------------------|
G|----11----12----11----12----10----10----9-----9--|
D|----------------------12----12----13----12----9--|
A|-10----10----10----10----10----10----10----10----|
E|-------------------------------------------------|

e|-----------------------------------------------|
b|-----------------------------------------------|
G|----8----8-----7---------12----12----12----12--|
D|----9----10----9----7----10----10----11----11--|
A|-10---10----10---10---10----10----10----10-----|
E|-----------------------------------------------|

 BRIDGE

e|-------------------------------------------------------------------|
B|----14----14----14-------------------------------------------------|
G|----------------------14------5-------5---------11----12----14-----|
D|----11----11----11----11----7---7---7---7-------12----12----12-----|
A|-13----13----12----12-----8-------6----------12----12----12----12--|
E|------------------------------------------10-----------------------|

 CHORUS

e|------------------------------------------------|
B|----11----11---11---11--------------------------|
G|----8-----8----8----8-----10----10----10----10--|
D|----8-----8----8----8-----12----12----10----12--|
A|-10----10----9----9----13----13----11----11-----|
E|------------------------------------------------|

Eleven White Roses
On a Black Granite Slab
The Beautiful Face
Followed By the Stab
I Sit By the Foot of Many Heart's Lament
All Wondering Still Where the Sun and Moon Went
All Wondering Still... Where the Sun and Moon Went

-bridge-

(Spider, Sweet Spider)
Jumped Onto My Hand
Did I Understand?

Endless Reflections
In a Room Made of Glass
The Winners, the Losers
...All End in the Past
Love Keeping Track of Every Tiny Attempt
At Facing the Monsters That Ego Has Sent
At Facing the Monsters... That Ego Has Sent

-bridge-

(Spider, Sweet Spider)
Jumped Onto My Hand
Did I Understand?
(We're Spinning These Webs to Trap All Our Dreams)
Entangled the Notion 'This is As it Seems'
(It's Just a Prison That Tumbles Right Down)
With the Force of a Kiss, a Smile for a Frown
(Spider, Sweet Spider)            
Submit corrections

↑ Back to top | Tablatures and chords for acoustic guitar and electric guitar, ukulele, drums are parodies/interpretations of the original songs. You may use it for private study, scholarship, research or language learning purposes only