» » »

Alain Clark - Father And Friend Tabs

Artists:  A B C D E F G H I J K L M N O P Q R S T U V W X Y Z # 

Father And Friend Tabs

(ver. 2) Click to play this song!
Alain Clark
 Rating:
4/5 (6 votes)

 Father And Friend lessons Tabs too difficult? Try these video lessons and learn fast
 
                (Intro)
-------------------------------------------------------------------------------
                             Ailan Clark - Father & Friend
-------------------------------------------------------------------------------

Tuning: Capo 3th Fret

The chords and the little picking part of the intro. This is my first tab, so it isn't perfect.
But I hope it will help you.

e|--3--------0-------3-----2-------------------------------------2h3--------|
B|--0--------1-------1-----3-------------------------------------3----------|
G|--0--------0-------0-----2-----------0--------0---------0----2------------|
D|--0--------2-------2-----0-----------------2----------2----0--------------|
A|--2--------0-------3-----x--------2-----0---------2h3---------------------|
E|--3--------x-------0-----x------3-----------------------------------------|

| /  slide up
| \  slide down
| h  hammer-on
| p  pull-off
| ~  vibrato
| +  harmonic
| x  Mute note
===============================================================================
            
Submit corrections


        Father And Friend lessons Hard to play? Try these video lessons and learn fast Father And Friend lessons
        
↑ Back to top | Tablatures and chords for acoustic guitar and electric guitar, ukulele, drums are parodies/interpretations of the original songs. You may use it for private study, scholarship, research or language learning purposes only