» » »

Alain Clark - Father And Friend Tabs

Artists:  A B C D E F G H I J K L M N O P Q R S T U V W X Y Z # 

Father And Friend Tabs

(ver. 1) Click to play this song!
Alain Clark
 Rating:
4.4/5 (7 votes)

 Father And Friend lessons Tabs too difficult? Try these video lessons and learn fast
 
                this is father and friend by alain clark.
he plays on acoustic guitar.

I think this is what he plays.
if you  find a fault. sat it to me please.


CAPO 3!!


intro:

chords you need for the intro:

G     -   330023
Am7   -   33020x
Cadd9 -   33023x
D     -   2320xx
Dsus4 -   3320xx


intro:

G     Am7     Cadd9     D(sus4)     x2


verse:
|-------3----------3---------3----------3p2h3------------|   \
|-------3----------3---------3----------3----------------|     \
|-------0----------0---------0------2--------------------|      \
|-------0-------2--------2-------0-----------------------|      / play this 4 times
|---2--------0--------3----------------------------------|      /
|3-------------------------------------------------------|     /

pre-verse 2:-
|0------0---------2------2------------|
|1----1----1------3---3----3----------|
|0--0--------0----2-2---------2-------|
|2----------------0-------------------|
|3------------------------------------|
|X------------------------------------|


G     Am7     Cadd9     D(sus4)     x2


verse:
|-------3----------3---------3----------3p2h3------------|   \
|-------3----------3---------3----------3----------------|     \
|-------0----------0---------0------2--------------------|      \
|-------0-------2--------2-------0-----------------------|      / play this 4 times
|---2--------0--------3----------------------------------|      /
|3-------------------------------------------------------|     /

pre-verse 2:-
|0------0---------2------2------------|
|1----1----1------3----3----3---------|
|0--0--------0----2--2--------2-------|
|2----------------0-------------------|
|3------------------------------------|
|X------------------------------------|

G     Am7     Cadd9     D(sus4)   x1


pre-chorus:

 C#m7                    F#m7b5                      Fmaj7
|  4-----------------------0--------------------------0-|
|  5-----------------------1--------------------------1-|
|  4-----------------------2--------------------------2-|
|  6-----------------------2--------------------------2-|
|  4-----------------------0--------------------------0-|
|  x-----------------------2--------------------------1-|


 Esus4     E  
|  0---0---0---0---|
|  0---0---0---0---|
|  2---2---1---1---|
|  2-2-2-2-2-2-2-2-|
|  2-2-2-2-2-2-2-2-|
|  0-0-0-0-0-0-0-0-|


chorus:

A   - 02220x
B7  - 202102
D   - 2320xx
E7  - 001020


A      | B7     | D      | E7     |
A      | B7     | D      | D again|

verse 3:
|-------3----------3---------3----------3p2h3------|  \
|-------3----------3---------3----------3----------|   \
|-------0----------0---------0------2--------------|    \
|-------0-------2--------2-------0-----------------|    / play this 4 times
|---2--------0--------3----------------------------|   /
|3-------------------------------------------------|  /


pre-chorus 2:

|0------------0------------0-0-0-0--0-0-0-0--|
|1------------1------------0-0-0-0--0-0-0-0--|
|0------------2------------2-2-2-2--1-1-1-1--|
|2------------2------------2-2-2-2--2-2-2-2--|
|3------------0------------2-2-2-2--2-2-2-2--|
|x------------1------------0-0-0-0--0-0-0-0--|


chorus 2:

same as chorus 1:

A----B7----D----E7--|
A----B7----D----D---|


pre-bridge?:
 C#m7                   Fmajor7                       Fblablabla
|4-----------------------0--------------------------0-|
|5-----------------------1--------------------------1-|
|4-----------------------2--------------------------2-|
|6-----------------------2--------------------------2-|
|4-----------------------0--------------------------0-|
|x-----------------------2--------------------------1-|

|--0---0---0---0---|
|--0---0---0---0---|
|--2---2---1---1---|
|--2-2-2-2-2-2-2-2-|
|--2-2-2-2-2-2-2-2-|
|--0-0-0-0-0-0-0-0-|


bridge:

F----B----C#7----E----F#7
1    2     4     0     2
1    4     6     0     2
2    4     4     1     3
3    4     6     2     2
3    2     4     2     4
1    x     x     0     2


chorus 3:


B----C#7----E----F#7
2     4     0     2
4     6     0     2
4     4     1     3
4     6     2     2
2     4     2     4
x     x     0     2

play this when the song fades out...
            
Submit corrections


        Father And Friend lessons Hard to play? Try these video lessons and learn fast Father And Friend lessons
        
↑ Back to top | Tablatures and chords for acoustic guitar and electric guitar, ukulele, drums are parodies/interpretations of the original songs. You may use it for private study, scholarship, research or language learning purposes only