» » »

Alabama 3 - Too Sick To Pray Bass

Artists:  A B C D E F G H I J K L M N O P Q R S T U V W X Y Z # 

Too Sick To Pray Bass

(ver. 1) Click to play this song!
Alabama 3
 Rating:
4/5 (4 votes)

 Too Sick To Pray lessons Tabs too difficult? Try these video lessons and learn fast
 
                                  Band: Alabama 3

tune: -dgcf- low to high can be played with normal E, A, D, G


bass steps in 1.07 (only at first time)
|-------------------------------------------------------------------|
|-------------------------------------------------------------------|
|-----------------------------------9--9--7h9--9-9-7h9-9-9-7h9--9-9-|
|--9--9--7h9--9-9-7h9--9-9-7h9--9-9---------------------------------|

---------------------------------------------------------|
---------------------------------------------------------|
---------------------------------------------------------|
--5--5--3h5--5-5-3h5--5-5-3h5--5-5-7--7-5-7--7-5-7-rest--|


Part 1
|----------------------------------------------------------|
|----------------------------------------------------------|
|------------------------------9--9-9-7h9--9--7-9-7-9--9-7-|
|--9--9-9-7h9--9--7-9-7-9--9-7-----------------------------| x2

Part 2
|----------------------------------------------------------|
|----------------------------------------------------------|
|------------------------------9--9-9-7h9--9--7-9-7-9--9-7-|
|--9--9-9-7h9--9--7-9-7-9--9-7-----------------------------|

--------------------------------------------------------|
--------------------------------------------------------|
--------------------------------------------------------|
--5--5-5-3h5--5--3-5--5--5-3-7--7-7-5h7--7--5-7--7--7-5-|


play part 1 again! |x2
play part 2 (hit the 7 only once and then rest!)
Play part 1 again! |x2
play part 2 (listen how the ending goes!)

Part 3
|---------------------------------------------------------|
|---------------------------------------------------------|
|-----------------------------9--9-7-9--9-7-9--9-7-9--9-7-|
|-9--9-7-9--9-7-9--9-7-9--9-7-----------------------------| repeat 3 times

rest

Play Part 1 again! |x2
Play Part 2 again! |x1
Play Part 1 again! |x2
Play Part 2 again! |x1
Play Part 1 again! |x2
Play Part 2 again! |x1
            
Submit corrections


        Too Sick To Pray lessons Hard to play? Try these video lessons and learn fast Too Sick To Pray lessons
        
↑ Back to top | Tablatures and chords for acoustic guitar and electric guitar, ukulele, drums are parodies/interpretations of the original songs. You may use it for private study, scholarship, research or language learning purposes only